Search tabs and chords

Browse bands and artists

A B C D E F G H I J K L M N O P Q R S T U V W X Y Z #

Log in

[ Register here | Forgot password ]

Guitar Tabs Explorer
Print

Guitar chords with lyrics:

Everybodys Asking Questions chords by James Arthur

  • Tuning: Standard
Tuning: EADGBE


Tabbed by: Matt Richards


Intro
e|------------------0------------------------------|
B|------8--------------8------8--------------------|
G|---------0---------------------------------------|     X 4-|
D|-------------------------------------------------|
A|--8----------8-----------8-----------------------|
E|-------------------------------------------------|

e|------------------0---------------------------------|
B|------8-------------8-------8-----------------------|
G|---------0------------------------------------------|
D|----------------------------------------------------|     X 2-|
A|----------------------------------------------------|
E|--8----------8----------8---------------------------|

e|----------------0---------------------------------|
B|-----8------------8------8------------------------|
G|--------0-----------------------------------------|
D|----------------------------------------|     X 2-|
A|--------------------------------------------------|
E|--7--------7----------7---------------------------|



3 2 0 0 1 0: Cmaj9
x 0 2 0 1 0: Am7
1 3 3 2 0 0: F (not sure what exact chord)
3 5 5 4 0 0: G6 (not sure what exact chord)
x 3 0 0 2 2: Cadd9  
3 2 0 0 2 2: G

Am7                       Cmaj9           F(refer to tab^^)
Baby believe me, dont you leave mehhh-eh eh eh ehh yeahhh

        G6
Baby believe me dont you leave me


Cadd9                      G                             Am7
Everybodys asking questions, but i just wanna talk to you

                       Cmaj9
Oh let me take all this pain from your eyes
.......
next few chords go :
F (open bottom strings)
G6 (open bottom strings)
to
A (open bottom stringed barre chord)
back to
G6
F.

Sorry not the best but if you're of the right standard to play it then you should

Comments

James Arthur guitar chords for Everybodys asking questions