Search tabs and chords

Browse bands and artists

A B C D E F G H I J K L M N O P Q R S T U V W X Y Z #

Log in

[ Register here | Forgot password ]

Guitar Tabs Explorer
Print

Can I Be Him tab by James Arthur

Guitar tabs

  • Capo on 4th fret

Intro
G D C C


Verse
G                   D                              C
You walked into the room and now my heart has been stolen
G                   D                    C
You took me back in time to when I was unbroken
                 G
Now you're all I want
              D                   C
And I knew it from the very first moment
                    G                    D
Cause a light came on when I heard that song
                   C
 and I want you to sing it again


Chorus
  G                D                C
e|----------------|----------------|----------------|------------------|
B|---3---3---3---3|---3---3---3---3|---1---1---1---1|---1---1---1---1--|
G|---0---0---0---0|---2---2---2---2|---0---0---0---0|---0---0---0---0--|
D|----------------|-0---0---0---0--|----------------|------------------|
A|----------------|----------------|-3---3---3---3--|-3---3---3---3----|
E|-3---3---3---3--|----------------|----------------|------------------|

  G                D                C
e|----------------|----------------|----------------|------------------|
B|---3---3---3---3|---3---3---3---3|---1---1---1---1|---1---1---1---1--|
G|---0---0---0---0|---2---2---2---2|---0---0---0---0|---0---0---0---0--|
D|----------------|-0---0---0---0--|----------------|------------------|
A|----------------|----------------|-3---3---3---3--|-3---3---3---3----|
E|-3---3---3---3--|----------------|----------------|------------------|

  G                D                C
e|----------------|----------------|----------------|------------------|
B|---3---3---3---3|---3---3---3---3|---1---1---1---1|---1---1---1---1--|
G|---0---0---0---0|---2---2---2---2|---0---0---0---0|---0---0---0---0--|
D|----------------|-0---0---0---0--|----------------|------------------|
A|----------------|----------------|-3---3---3---3--|-3---3---3---3----|
E|-3---3---3---3--|----------------|----------------|------------------|

  G                D                C
e|----------------|----------------|----------------|------------------|
B|---3---3---3---3|---3---3---3---3|---1---1---1---1|---1---1---1---1--|
G|---0---0---0---0|---2---2---2---2|---0---0---0---0|---0---0---0---0--|
D|----------------|-0---0---0---0--|----------------|------------------|
A|----------------|----------------|-3---3---3---3--|-3---3---3---3----|
E|-3---3---3---3--|----------------|----------------|------------------|


Verse 2
  G                D                C
e|---3---3---3---3|---2---2---2---2|---0---0---0---0|---0---0---0---0--|
B|---3---3---3---3|---3---3---3---3|---1---1---1---1|---1---1---1---1--|
G|-0---0---0---0--|-2---2---2---2--|-0---0---0---0--|-0---0---0---0----|
D|----------------|----------------|----------------|------------------|
A|----------------|----------------|----------------|------------------|
E|----------------|----------------|----------------|------------------|

  G                D                C
e|---3---3---3---3|---2---2---2---2|---0---0---0---0|---0---0---0---0--|
B|---3---3---3---3|---3---3---3---3|---1---1---1---1|---1---1---1---1--|
G|-0---0---0---0--|-2---2---2---2--|-0---0---0---0--|-0---0---0---0---|
D|----------------|----------------|----------------|------------------|
A|----------------|----------------|----------------|------------------|
E|----------------|----------------|----------------|------------------|

  G                D                C
e|---3---3---3---3|---2---2---2---2|---0---0---0---0|---0---0---0---0--|
B|---3---3---3---3|---3---3---3---3|---1---1---1---1|---1---1---1---1--|
G|-0---0---0---0--|-2---2---2---2--|-0---0---0---0--|-0---0---0---0----|
D|----------------|----------------|----------------|------------------|
A|----------------|----------------|----------------|------------------|
E|----------------|----------------|----------------|------------------|

  G                D                C
e|---3---3---3---3|---2---2---2---2|---0---0---0---0|---0---0---0---0--|
B|---3---3---3---3|---3---3---3---3|---1---1---1---1|---1---1---1---1--|
G|-0---0---0---0--|-2---2---2---2--|-0---0---0---0--|-0---0---0---0----|
D|----------------|----------------|----------------|------------------|
A|----------------|----------------|----------------|------------------|
E|----------------|----------------|----------------|------------------|


Chorus
  G                D                C
e|----------------|----------------|----------------|------------------|
B|---3---3---3---3|---3---3---3---3|---1---1---1---1|---1---1---1---1--|
G|---0---0---0---0|---2---2---2---2|---0---0---0---0|---0---0---0---0--|
D|----------------|-0---0---0---0--|----------------|------------------|
A|----------------|----------------|-3---3---3---3--|-3---3---3---3----|
E|-3---3---3---3--|----------------|----------------|------------------|

  G                D                C
e|----------------|----------------|----------------|------------------|
B|---3---3---3---3|---3---3---3---3|---1---1---1---1|---1---1---1---1--|
G|---0---0---0---0|---2---2---2---2|---0---0---0---0|---0---0---0---0--|
D|----------------|-0---0---0---0--|----------------|------------------|
A|----------------|----------------|-3---3---3---3--|-3---3---3---3----|
E|-3---3---3---3--|----------------|----------------|------------------|

  G                D                C
e|----------------|----------------|----------------|------------------|
B|---3---3---3---3|---3---3---3---3|---1---1---1---1|---1---1---1---1--|
G|---0---0---0---0|---2---2---2---2|---0---0---0---0|---0---0---0---0--|
D|----------------|-0---0---0---0--|----------------|------------------|
A|----------------|----------------|-3---3---3---3--|-3---3---3---3----|
E|-3---3---3---3--|----------------|----------------|------------------|

  G                D                C
e|----------------|----------------|----------------|------------------|
B|---3---3---3---3|---3---3---3---3|---1---1---1---1|---1---1---1---1--|
G|---0---0---0---0|---2---2---2---2|---0---0---0---0|---0---0---0---0--|
D|----------------|-0---0---0---0--|----------------|------------------|
A|----------------|----------------|-3---3---3---3--|-3---3---3---3----|
E|-3---3---3---3--|----------------|----------------|------------------|


Bridge
  C                D                G                D
e|---0---0---0---0|---2---2---2---2|---3---3---3---3|---2---2---2---2--|
B|---1---1---1---1|---3---3---3---3|---3---3---3---3|---3---3---3---3--|
G|-0---0---0---0--|-2---2---2---2--|-0---0---0---0--|-2---2---2---2----|
D|----------------|----------------|----------------|------------------|
A|----------------|----------------|----------------|------------------|
E|----------------|----------------|----------------|------------------|

 C                D                G                D
e|---0---0---0---0|---2---2---2---2|-3--------------|-2----------------|
B|---1---1---1---1|---3---3---3---3|-3--------------|-3----------------|
G|-0---0---0---0--|-2---2---2---2--|-0--------------|-2----------------|
D|----------------|----------------|-0--------------|-0----------------|
A|----------------|----------------|-2--------------|------------------|
E|----------------|----------------|-3--------------|------------------|

         G             D
Want you sing it again
             C
Oh, when you sing it again
D
Can I be him
          G            D
Want you sing it again
              C
Oh, when you sing it again
D
Can I be him


Chorus
  G                D                C
e|----------------|----------------|----------------|------------------|
B|---3---3---3---3|---3---3---3---3|---1---1---1---1|---1---1---1---1--|
G|---0---0---0---0|---2---2---2---2|---0---0---0---0|---0---0---0---0--|
D|----------------|-0---0---0---0--|----------------|------------------|
A|----------------|----------------|-3---3---3---3--|-3---3---3---3----|
E|-3---3---3---3--|----------------|----------------|------------------|

  G                D                C
e|----------------|----------------|----------------|------------------|
B|---3---3---3---3|---3---3---3---3|---1---1---1---1|---1---1---1---1--|
G|---0---0---0---0|---2---2---2---2|---0---0---0---0|---0---0---0---0--|
D|----------------|-0---0---0---0--|----------------|------------------|
A|----------------|----------------|-3---3---3---3--|-3---3---3---3----|
E|-3---3---3---3--|----------------|----------------|------------------|

  G                D                C
e|----------------|----------------|----------------|------------------|
B|---3---3---3---3|---3---3---3---3|---1---1---1---1|---1---1---1---1--|
G|---0---0---0---0|---2---2---2---2|---0---0---0---0|---0---0---0---0--|
D|----------------|-0---0---0---0--|----------------|------------------|
A|----------------|----------------|-3---3---3---3--|-3---3---3---3----|
E|-3---3---3---3--|----------------|----------------|------------------|

  G                D                C
e|----------------|----------------|----------------|------------------|
B|---3---3---3---3|---3---3---3---3|---1---1---1---1|---1---1---1---1--|
G|---0---0---0---0|---2---2---2---2|---0---0---0---0|---0---0---0---0--|
D|----------------|-0---0---0---0--|----------------|------------------|
A|----------------|----------------|-3---3---3---3--|-3---3---3---3----|
E|-3---3---3---3--|----------------|----------------|------------------|

  G                D                C                D
e|----------------|----------------|----------------|------------------|
B|---3---3---3---3|---3---3---3---3|---1---1---1---1|---3---3---3---3--|
G|---0---0---0---0|---2---2---2---2|---0---0---0---0|---2---2---2---2--|
D|----------------|-0---0---0---0--|----------------|-0---0---0---0----|
A|----------------|----------------|-3---3---3---3--|------------------|
E|-3---3---3---3--|----------------|----------------|------------------|

  G                D                C                D
e|----------------|----------------|----------------|-2----------------|
B|---3---3---3---3|---3---3---3---3|---1---1---1---1|-3----------------|
G|---0---0---0---0|---2---2---2---2|---0---0---0---0|-2----------------|
D|----------------|-0---0---0---0--|----------------|-0----------------|
A|----------------|----------------|-3---3---3---3--|------------------|

Other versions of Can I Be Him

- Can I be himChords
- Can I be him (Ver. 2)Chords
- Can I be him (Ver. 3)Chords
- Can I be him acousticChords

Comments