Log in

One click and you are in

Login with Facebook Login with Google

Why sign up and log in

Guitar Tabs Explorer
Armor For Sleep bass tabs for Raindrops

Bass tabs

Album: Dream to Make Believe
Tabbed by: Joseph Badilla
all my own work, any questions or comments, feel free to email me

G:----------------------|----------------------| 1x [0:06-0:16]
D:----------------------|----------------------|
A:----------------------|----------------------|
E:---6~-----------------|---5~-----------------|

G:-------------------------------------------------| 3x [0:17-0:49]
D:---------------------------------------------10--|
A:--------68--7------68--7------68--7------68------|
E:---6~----------8----------5----------8-----------|

G:-------------------------------------| 1x [0:50-0:59]
D:-------------------------------------|
A:-------------------------------------|
E:---33333333666666663333333366666666--|

G:-------------------------------------|-------------------| 2x
[1:00-1:22]
D:-------------------------------------|-------------------|
A:-------------------------------------|-------------------|
E:---000000000000000000000/6666666666--|--666555666555333--|

G:-------------------------------------------------| 2x [1:23-1:44]
D:---------------------------------------------10--|
A:--------68--7------68--7------68--7------68------|
E:---6~----------8----------5----------8-----------|

G:-------------------------------------|-------------------------------------|
2x [1:45-2:05]
D:-------------------------------------|-------------------------------------|
A:--------------8-----------------8----|--------------7-----------------7/8--|
E:--66-66-66-66---6---66-66-66-66---6--|--55-55-55-55---5---55-55-55-55------|

G:-------------------------------------| 1x [2:06-2:16]
D:-------------------------------------|
A:-------------------------------------|
E:---3333333366666666333333336~--------|

G:-------------------------------------|-------------------| 2x
[2:17-2:38]
D:-------------------------------------|-------------------|
A:-------------------------------------|-------------------|
E:---000000000000000000000/6666666666--|--666555666555333--|

G:------------------------------------------------| 4x [2:39-3:21]
D:--------------------------------8--------8------|
A:------------------------------------------------|
E:---0~---------0~--------0/6---------6-----------|

G:-------------------------------------| 1x [3:22-3:32]
D:-------------------------------------|
A:-------------------------------------|
E:---0~--------------------------------|

G:-------------------------------------|---------------------| 2x
[3:33-4:02]
D:-------------------------------------|---------------------|
A:-------------------------------------|---------------------|
E:---000000000000000000000/6666666666--|--666555666555333-0--|

G:-------------------|------------------------------------|---------------------
| 1x [4:03-4:20]
D:-------------------|------------------------------------|---------------------
|
A:-------------------|------------------------------------|---------------------
|
E:--666555666555333--|--000000000000000000000/6666666666--|--666555666555333-0--
|

G:----------------|---------------------|------------------------------------|
1x [4:21-4:34]
D:----------------|---------------------|------------------------------------|
A:----------------|---------------------|------------------------------------|
E:--0/6666666666--|--666555666555333-0--|--000000000000000000000/6666666666--|

G:---------------------------| 1x [4:35-end]
D:---------------------------|
A:---------------------------|
E:--666555666555333-0---6b---|

________________________________________________________________________________

Almost there ...

Sign in to get your own page with links to favourite songs and more. You are just one click away...

Login with Facebook Login with Google