Log in

One click and you are in

Login with Facebook Login with Google

Why sign up and log in

Guitar Tabs Explorer
Armor For Sleep tabs for End of the world

Guitar tabs with lyrics

"End of The World"
Armor For Sleep

Tuning: Drop A chord diagramD MajorD
Tabbed By :Chainsaw

( = bend string up
) = bend string down
/ = slide up
\ = slide down
X = mute or stop, what ever you wnna call it
pm = palm mute
h = hammer on
p = pull off
* = repeat section untill [this mark]
n = down storke [when strumming is specified]
v = up stroke [when strumming is specified]
                Intro [Clean w/ Delay]

Part 1
Guitar 1
E-------------------|
B-9-9-9-9-9h10-10-9*|
G--9-9-9-9-------9--|
D-------------------|
A-------------------|
D-------------------|

E---------------------|
B-8-8-8-8-------------|
G--8-8-8-8-12\11-11(-9|
D---------------------|
A---------------------|
D---------------------|
be sure that when you bend at 11 that you let the string fall
back into place before hitting 9

E------------------|
B-9-9-9-9-9h10-10-9|
G--9-9-9-9-------9-|
D------------------|
A------------------|
D------------------|

E-------------------------|
B-8-8-8-8-10/12-12\10-10\9|
G--8-8-8-8*---------------|
D-------------------------|
A-------------------------|
D-------------------------|
2nd*

Guitar 2
E------------------|
B------------------|
G------------------|
D-2-----5----------|
A-2[x4]-5[x4]-7[x8]|
D-2-----5----------|

E-------------------|
B-------------------|
G-------------------|
D-2-----5-----7-----|
A-2[x4]-5[x4]-7[x8])|
D-2-----5-----7-----|
bend the entire chord

E------------------|
B------------------|
G------------------|
D-12-12X-12X-12-12X|
A-12-12X-12X-12-12X|
D-12-12X-12X-12-12X|

Part 2 [distorted with  weird effect,
maybe a flanger or chorus pedal, idk]

Guitar 1
E---19------------19--------|
B-17--15-17-15--17--15-17-17|
G---------------------------|
D---------------------------|
A---------------------------|
D---------------------------|

E---17------------15-----|
B-17--12-13-13*-13--15-15|
G------------------------|
D------------------------|
A------------------------|
D------------------------|
*

Guitar 2

E------------------|
B------------------|
G------------------|
D-2-----5-----7----|
A-2[x4]/5[x4]-7[x8]|
D-2-----5-----7----|

E------------------------------|
B------------------------------|
G------------------------------|
D-2-----5-----7-----0-0--0--0-0|
A-2[x4]-5[x4]-7[x4]-0-0--0--0-0|
D-2-----5-----7-----0-0--0--0-0|

                   Verse

Guitar 1
E-3-----------------------------------------|
B-3-----------------------------------------|
G-0-----------------------------------------|
D-0-----------------------------------------|
A-pm[should already be muted by finger on 5]|
D-5-----------------------------------------|
n nvnvnx
i know it looks weird, but its accually a A chord diagramG+G chord in a drop d

E-3----------------------------------------|
B-3----------------------------------------|
G-0----------------------------------------|
D-0----------------------------------------|
A-pm[should alreay be muted by finger on 5]|
D-4----------------------------------------|
n nvnvnX

E--|
B--|
G--|  n nvnvnX
D-2|
A-2|
D-2| repeat all this 4x, n the 4th time, guitar 2 comes in

Guitar 2
[Guitar 1 keeps repeating]
E-----------------|
B------8[x5]-9[x8]|
G-----------------|
D-9[x6]-----------|
A-----------------|
D-----------------|

both guitars x2
        Pre-Chorus
repeat intro guitar 1 untill 1st*

       Chorus
repeat intro part 2, but guitar 1 continues to do part 1,
n on the second time guitar 1 does the second part

       Bridge
Guitar 2
E-------------------------|
B-------------------------|
G-------------------------|
D-5----X7----X2----X0----X|
A-5[x6]X7[x6]X2[x6]X0[x6]X|
D-5----X7----X2----x0----X|

E--------------------|
B--------------------|
G--------------------|
D-5----X7----X2-----X|
A-5[x6]X7[x6]X2[X12]X|
D-5----X7----X2-----X|

E-------------------------|
B-------------------------|
G-------------------------|
D-5----X7----X2----X0----X|
A-5[x6]X7[x6]X2[x6]X0[x6]X|
D-5----X7----X2----X0----X|

E---------------|
B---------------|
G---------------|
D-5------7------|
A-5[x12]-7[x12]-|
D-5------7------|

repeat intro untill 2nd* without guitar 2, and move right into the next chorus

fun song to play, hope you enjoy =]

Almost there ...

Sign in to get your own page with links to favourite songs and more. You are just one click away...

Login with Facebook Login with Google