Log in

One click and you are in

Login with Facebook Login with Google

Why sign up and log in

Guitar Tabs Explorer
Meir Ariel tabs for Terminal lominelt

Guitar tabs

Meir Ariel
Terminal Lominelt

Tabbed by:Dan Pomerchik

A chord diagramA augmentedA great song by the late Meir Ariel.
Intro/Verse

     A chord diagramE minorEm                   A chord diagramD MajorD                   A chord diagramC majorC               A chord diagramBB

E:-----------------------------------------3-----3---------2-----2----
B:-------8-----8----------7-----7--------5-----5---------4-----4------
G:-----9-----9----------7-----7--------5-----5-----5---4-----4-----4--
D:---9-----9-----9----7-----7-----7-----------------------------------
A:--------------------------------------------------------------------
E:--------------------------------------------------------------------


Bridge
After you play the above several times

E:--------------------------------------------------------------------
B:--------------------------------------------------------------------
G:--------------------------------------------------------------------
D:---0h1/2-2---0h1/2-2--0h1/2---2--2/4/5--7-5-4--2--------------------
A:--------------------------------------------------------------------
E:--------------------------------------------------------------------

Almost there ...

Sign in to get your own page with links to favourite songs and more. You are just one click away...

Login with Facebook Login with Google