Guitar Tabs Explorer
Arctic Monkeys guitar tabs for Tranquility base hotel and casino

Tranquility Base Hotel And Casino tab


Be the first to rate

Tranquility Base Hotel And Casino tab by Arctic Monkeys

Guitar tabs

Print
Tuning: Standard (E chord diagramEE A chord diagramAA D chord diagramDD G chord diagramGG B chord diagramBB E chord diagramEE)

Key: Dm chord diagramDmDm

Difficulty: Novice


standard E chord diagramEE-A chord diagramAA-D chord diagramDD-G chord diagramGG-B chord diagramBB-E chord diagramEE


intro / verse 1
       Dm chord diagramDmDm   Am chord diagramAmAm    Dm chord diagramDmDm   G chord diagramGG  Dm chord diagramDmDm  Am chord diagramAmAm  Dm chord diagramDmDm  Em chord diagramEmEm      Dm chord diagramDmDm
e|------1-|-0-----1--|-3---1---0---1-|-0------1--|
b|------3-|-1-----3--|-3---3---1---3-|-0------3--|
g|------2-|-2-----2--|-4---2---2---2-|-1------2--|
d|------0-|-2-----0--|-5---0---2---0-|-2------0--|
a|--------|-0--------|-5-------0-----|-2---------|
E|--------|----------|-3-------------|-0---------|

Chorus   ("eww good afternoom.." part)
             2xs
e|--0-----0----|--0---1-----|
b|:-0-----0---:|--0---3-----|
g|--1-----1----|--1---2-----|
d|--2-----2----|--2---0-----|
a|--2-----2----|--2---------|
E|--0-----0----|--0---------|

******verse Riff
******chorus riff

Bridge              4xs
    F chord diagramFF     G chord diagramGG    C chord diagramCC+  Cmaj7 chord diagramCmaj7Cmaj7 CmMaj7Trid (james bond chord)
e|--1-----3--|-1----3--|--3~--(------3~-)--|
b|:-1-----3--|-1----5-:|--4~--(----4~4~-)--|
g|--2-----4--|-1----4--|--4~--(---4~-4~-)--|
d|--3-----5--|-2----5--|--5~--(--5~-----)--|
a|--3-----5--|-3----3--|--3~--(-3~------)--|
E|--1-----3--|---------|-------------------|
                              (can slowly downstroke for dramatic effect)

*****Verse Riff
******Chorus Riff


 ~ = let note ring / vibrato (low amount)
 p = pull off      h = hammer on
 / = slide up      \ = slide down
 ^ = bend

Other versions of Tranquility Base Hotel And Casino

Tranquility base hotel and casinoChords
Tranquility base hotel and casino (Ver. 2)Chords

Comment this song and these guitar tabs

Do you have corrections, comments on the guitar tabs, thoughts about the song or a message to the author? Write them below.