Guitar Tabs Explorer
Arctic Monkeys bass tabs for Tranquility base hotel and casino

Tranquility Base Hotel And Casino bass tab


2 / 5 [1 vote]

Tranquility Base Hotel And Casino bass tab by Arctic Monkeys

Bass tabs

Print
Tuning: Standard (E A D G)

Key: Am

Difficulty: Intermediate

Intro:


   1 + 2 + 3 + 4 + 5 +
G|---------------------|
D|---------------------|
A|---------------------|
E|---------------------|

   1 ^ + ^ 2 ^ + ^ 3 ^ + ^ 4 ^ + ^
G|---------------------------------|
D|---------------------------------|
A|---------------5h7---------8\----|
E|-------------------5-5-----------|

   1 ^ + ^ 2 ^ + ^ 3 ^ + ^ 4  ^  +  ^
G|------------------------------------|
D|-------------------------10h12-10\--|
A|------------------------------------|
E|------------------------------------|


Pre-verse:

   1 ^ + ^ 2 ^ + ^ 3 ^ + ^ 4 ^ + ^
G|---------------------------------|
D|-7---7---7-5---5-----------------|
A|-------------7-----7-5-----------|
E|---------------------------------|

   1 ^ + ^ 2 ^ + ^ 3 ^   + ^ 4 ^ + ^
G|-----------------------------------|
D|-----------------------------------|
A|---------5-3---3---5-5/7---5-------|
E|-3---3-------5---------------------|

   1 ^ + ^ 2 ^ + ^ 3 ^ + ^ 4 ^  + ^
G|----------------------------------|
D|-----------------9h10--9------7---|
A|-7---7\------7-7-----------10-----|
E|----------------------------------|



Verse:

   1 ^ + ^ 2 ^ + ^ 3 ^ + ^ 4 ^ + ^   1 ^ + ^ 2 ^ + ^ 3 ^   + ^ 4 ^ + ^
G|---------------------------------|-----------------------------------|
D|-7---7---------------------------|-----------------------------------|
A|---------0-3-3-0---7-5---------7-|---------5-3---3---5-5/7---5-------|
E|---------------------------------|-3---3-------5---------------------|

   1 ^ + ^ 2 ^ + ^ 3 ^ + ^ 4 ^ + ^
G|---------------------------------|
D|---------------------------------|
A|-7---7-----------5-7---5-7-------|
E|---------------7-----------------|

   1 ^ + ^ 2 ^ + ^ 3 ^ + ^ 4 ^ + ^   1 ^ + ^ 2 ^ + ^ 3 ^   + ^ 4 ^ + ^
G|---------------------------------|-----------------------------------|
D|-7---7---------------------------|-----------------------------------|
A|---------0-3-3-0---7-5-----------|---------5-3---3---5-5/7---5-------|
E|---------------------------------|-3---3-------5---------------------|

   1 ^ + ^ 2 ^ + ^ 3 ^ + ^ 4 ^ + ^
G|---------------------------------|
D|---------------------------5-----|
A|-7---7---------5-7-5-7-----------|
E|---------------------------------|

   1 ^ + ^ 2 ^ + ^ 3 ^ + ^ 4 ^ + ^   1 ^ + ^ 2 ^ + ^ 3 ^   + ^ 4 ^ + ^
G|---------------------------------|-----------------------------------|
D|-7---7---------------------------|-----------------------------------|
A|---------0-3-3-0---7-5---------7-|---------5-3---3---5-5/7---5-------|
E|---------------------------------|-3---3-------5---------------------|

   1 ^ + ^ 2 ^ + ^ 3 ^ + ^ 4 ^  + ^
G|----------------------------------|
D|-----------------9h10--9------7---|
A|-7---7---------7-----------10-----|
E|----------------------------------|

   1 ^ + ^ 2 ^ + ^ 3 ^ + ^ 4 ^ + ^   1 ^ + ^ 2 ^ + ^ 3 ^ + ^ 4 ^ + ^
G|---------------------------------|---------------------------------|
D|-7-7-7---7-5---5-----------------|---------------------------------|
A|-------------7-----7-5---------7-|---------------5h7-------8-------|
E|---------------------------------|-3---3-------------5-5-----------|

   1 ^ + ^ 2 ^ + ^ 3 ^ + ^ 4 ^ + ^
G|---------------------------------|
D|---------------------------5-----|
A|-7---7---------5-7-5-7-----------|
E|---------------------------------|

   1 ^ + ^ 2 ^ + ^ 3 ^ + ^ 4 ^ + ^   1 ^ + ^ 2 ^ + ^ 3 ^   + ^ 4 ^ + ^
G|---------------------------------|-----------------------------------|
D|-7---7---------------------------|-----------------------------------|
A|---------0-3-3-0---7-5---------7-|---------5-3---3---5-5/7---5-------|
E|---------------------------------|-3---3-------5---------------------|



Chorus:

   1 ^ + ^ 2 ^ + ^ 3 ^ + ^ 4 ^ + ^
G|---------------------------------|
D|---------------------------------|
A|-7---7\--------------------------|
E|-------------------------------7-| x2

   1 ^ + ^ 2 ^ + ^ 3 ^ + ^ 4 ^  + ^
G|----------------------------------|
D|-----------------9h10--9------7---|
A|-7---7---------7-----------10-----|
E|----------------------------------|

   1 ^ + ^ 2 ^ + ^ 3 ^ + ^ 4 ^ + ^
G|---------------------------------|
D|---------------------------------|
A|-7---7-------x-7---5~-\3-5-3-5---|
E|---------------------------------|



Verse:

   1 ^ + ^ 2 ^ + ^ 3 ^ + ^ 4 ^ + ^   1 ^ + ^ 2 ^ + ^ 3 ^   + ^ 4 ^ + ^
G|---------------------------------|-----------------------------------|
D|---------------------------------|-----------------------------------|
A|-----------3-3-----7-5---------7-|---------5-3---3---5-5/7---5-------|
E|-5---5---5-----5-----------------|-3---3-------5---------------------|

   1 ^ + ^ 2 ^ + ^ 3 ^ + ^ 4 ^ + ^
G|---------------------------------|
D|---------------------------5-----|
A|-7---7\--------------------------|
E|---------------------------------|

   1 ^ + ^ 2 ^ + ^ 3 ^ + ^ 4 ^ + ^   1 ^ + ^ 2 ^ + ^ 3 ^   + ^ 4 ^ + ^
G|---------------------------------|------------------------------------|
D|-7---7---------------------------|------------------------------------|
A|---------0-3-3-0---7-5-----------|---------5-3---3---5-5/7---5-----5/-|
E|---------------------------------|-3---3-------5----------------------|

   1 ^ + ^ 2 ^ + ^ 3 ^ + ^ 4 ^ + ^
G|---------------------------------|
D|-----------------------------5---|
A|-7~--7---------7-7-7-7---7-7-----|
E|---------------------------------|

   1 ^ + ^ 2 ^ + ^ 3 ^ + ^ 4 ^ + ^   1 ^ + ^ 2 ^ + ^ 3 ^ + ^ 4 ^ + ^
G|---------------------------------|---------------------------------|
D|-7---7---7-5---5-----------------|---------------------------------|
A|-------------7-----7-5---------7-|---------------5h7-------8-------|
E|---------------------------------|-3---3-------------5-5-----------|

   1 ^ + ^ 2 ^ + ^ 3 ^ + ^ 4 ^ + ^
G|---------------------------------|
D|---------------------------------|
A|-7---7-----------7---------------|
E|---------------7---7-------------|

   1 ^ + ^ 2 ^ + ^ 3 ^ + ^ 4 ^ + ^   1 ^ + ^ 2 ^ + ^ 3 ^ + ^ 4 ^ + ^
G|---------------------------------|---------------------------------|
D|-7---7---7-5---5-----------------|---------------------------------|
A|-------------7-----7-5-----------|---------5-3---3---5-5/7---5-----|
E|---------------------------------|-3---3-------5-------------------|

   1 ^ + ^ 2 ^ + ^ 3 ^ + ^ 4 ^ + ^
G|---------------------------------|
D|---------------------------5-----|
A|-7---7\--------7-7-7---8-----7---|
E|---------------------------------|

   1 ^ + ^ 2 ^ + ^ 3 ^ + ^ 4 ^ + ^   1 ^ + ^ 2 ^ + ^ 3 ^ + ^ 4 ^ + ^
G|---------------------------------|---------------------------------|
D|-7---7---7-5---5-----------------|---------------------------------|
A|-------------7-----7-5--/15------|---------5-3---3---5-5/7---5-----|
E|---------------------------------|-3---3-------5-------------------|



Chorus:

   1 ^ + ^ 2 ^ + ^ 3 ^ + ^ 4 ^ + ^
G|---------------------------------|
D|---------------------------------|
A|-7---7\--------------------------|
E|---------------------------------|

   1 ^ + ^ 2 ^ + ^ 3 ^ + ^ 4 ^ + ^
G|---------------------------------|
D|---------------------------------|
A|-7---7\----------------------7---|
E|---------------------------7-----|

   1 ^ + ^ 2 ^ + ^ 3 ^ + ^ 4 ^ + ^
G|---------------------------------|
D|-----------------9h10--9---7-9---|
A|-7---7-------7-7-----------------|
E|---------------------------------|

   1 ^ + ^ 2 ^ + ^ 3 ^ + ^ 4 ^ + ^
G|---------------------------------|
D|---------------------------------|
A|-7---7-------x-7---5---3-5-3-5---|
E|---------------------------------|



Bridge:

   1 ^ + ^ 2 ^  + ^ 3 ^    +  ^ 4 ^  +  ^    1  ^ +  ^  2  ^ + ^ 3  ^  +  ^ 4 ^ +  ^
G|-----------------------------------------|-----------------------------------------|
D|-----------------------------------------|-----------/14-------10h12p10------------|
A|-8---8---8------8------8/10-----10-10-11-|-12---12----------------------------10\--|
E|-----------10-8-----10-------------------|-----------------------------------------|

   1 ^ + ^ 2 ^  + ^ 3 ^    +  ^ 4 ^  +  ^    1  ^ +  ^  2  ^ + ^ 3  ^  +  ^ 4 ^ +  ^
G|-----------------------------------------|-----------------------------------------|
D|-----------------------------------------|---------12h14-------10h12p10------------|
A|-8---8---8------8------8/10--------10-11-|-12---12---------------------------------|
E|-----------10-8-----10----------10-------|-----------------------------------------|

   1 ^ + ^ 2 ^  + ^ 3 ^    +  ^ 4 ^  +  ^    1  ^ +  ^  2  ^ + ^ 3  ^  +  ^ 4 ^ +  ^
G|-----------------------------------------|------------------------------------------|
D|-----------------------------------------|---------12h14-------10h12p10----------10-|
A|-8---8---8------8------8/10--------10-11-|-12---12----------------------------10----|
E|-----------10-8-----10----------10-------|------------------------------------------|


    1  ^ + ^ 2 ^ +  ^   3  ^ + ^ 4 ^ + ^
G|---------------------------------------|
D|------------------10-------------------|
A|-/14-----------10----/13\--------------|
E|---------------------------------------| (not sure about this bar)

   1 + 2 + 3 + 4 +
G|-----------------|
D|-----------------|
A|-----------------|
E|-----------------|

   1 ^ +  ^  2 ^  + ^  3  ^  +  ^ 4 ^  + ^   1 + 2 + 3 + 4 +
G|-----------------------------------------|-----------------|
D|-----14-12---10---10-12-10-12\-----------|-----------------|
A|----------------------------------12\----|-----------------|
E|-----------------------------------------|-----------------|



Pre-chorus:

   1 ^ + ^ 2 ^ + ^ 3 ^ + ^ 4 ^ + ^   1 ^ + ^ 2 ^ + ^ 3 ^ + ^ 4 ^ + ^
G|---------------------------------|---------------------------------|
D|-7-------7-5---5-----------------|---------------------------------|
A|-----0-------7-----7-5-----------|---------------5h7-------8-------|
E|---------------------------------|-3---3-------------5-5-----------|



Chorus:

   1 ^ + ^ 2 ^ + ^ 3 ^ + ^ 4 ^ + ^
G|---------------------------------|
D|-----------------------------5-7-|
A|-7---7\----------------7-5-7-----|
E|---------------------------------|

   1 ^ + ^ 2 ^ + ^ 3 ^ + ^ 4 ^ + ^
G|---------------------------------|
D|-----------------9-10--9-10--9---|
A|-7---7-------7-7-----------------|
E|---------------------------------|

   1 ^ + ^ 2 ^ + ^ 3 ^ + ^ 4 ^ + ^
G|---------------------------------|
D|---------------------------------|
A|-7---7---------5-7-5-3-5---3-5---|
E|---------------------------------|

   1 ^ + ^ 2 ^ + ^ 3 ^ + ^ 4 ^ + ^
G|---------------------------------|
D|---------------------------------|
A|-7---7-------x-7---5---3-5-3-5---|
E|---------------------------------|




************************************

| x   Dead note
| h   Hammer-on
| p   Pull-off
| /   Slide up
| \   Slide down
| ~   Legato

************************************

Comment this song and these bass tabs

Do you have corrections, comments on the bass tabs, thoughts about the song or a message to the author? Write them below.