Log in

One click and you are in

Login with Facebook Login with Google

Why sign up and log in

Guitar Tabs Explorer
Arctic Monkeys bass tabs for Riot van

Bass tabs

-------------------------------------------------------------------------------
			   Riot Van - Arctic Monkeys
*Whatever People Say I Am, That's What I'm Not*
-------------------------------------------------------------------------------

Tabbed By : Life35
e-mail: CLife10@gmail.com
Tuning: Standard

This is my first tab so any suggestions would be greatly appreciated! In the
meantime, have fun playing along!


Intro 4x (0.01)
G|---------|
D|---------|
A|---------|
E|-10-9-7--|


Verse I 2x (0.19)
G|---------------|
D|---------------|
A|-----4-------7-|
E|-5-------7-----|


Chorus 4x (0.37)
G|--------|
D|--------|
A|--------|
E|-10-9-7-|

Verse II (0.56)
G|---------------------------------------|
D|-7-------------------------------------|
A|---------------7---/12---------------7-|
E|-----9---9-7-------------9---9-7-7-----|


Chorus 4x (1.14)
G|--------|
D|--------|
A|--------|
E|-10-9-7-|


Solo (1.33) [You can improvise the repeated fillers here]
G|--------------------------------------------------------|
D|-7------------------------------------------------------|
A|------------------------7---/12-------------------------|
E|-----9---9-7--7--7-7-7------------9---9-7--7--7-7-7/-12-|


Chorus/Outro 4x (1.51)
G|--------|
D|--------|
A|--------|
E|-10-9-7-|

| / slide up
| \ slide down
| h hammer-on
| p pull-off
| ~ vibrato
| + harmonic
| x Mute note

Almost there ...

Sign in to get your own page with links to favourite songs and more. You are just one click away...

Login with Facebook Login with Google