Log in

One click and you are in

Login with Facebook Login with Google

Why sign up and log in

Guitar Tabs Explorer
Arctic Monkeys bass tabs for Matador

Bass tabs

  • Difficulty: Beginner
Key: C


Intro:

wait

0:35-1:53
instead of 1 fr on A string you can try 6 fr on E string.

G|----------------------------------|
D|----------------------------------|
A|----------5-5-1-1-4-4-4-4-4-4-4-4-|
E|--3-3-3-3-------------------------|

some variations
G|----------------------------------|
D|----------------------------------|
A|----------5-5-1-1-4-4-4-0-4-4-0-4-|
E|--3-3-3-3-------------------------|

at the end of this part
G|------------------|
D|------------------|
A|------------------|
E|-3~---------------|

2:02-3:33
G|------------------|
D|------------------|
A|-----5-5-----3-3--|
E|-3-3-----4-4------|

3:34-4:59
(fast picking)
G|---------------------------------|
D|---------------------------------|
A|-----------5-5-5-----------3-3-3-|
E|-3-3-3-3-3-------4-4-4-4-4-------|

And that's it!
Feel free to comment,rate and correct!!


************************************

| ~ Vibrato

************************************

ⓘ Bass guitar tab for 'Matador' by Arctic Monkeys, an indie band formed in 2002 from Sheffield, England. Arctic Monkeys is known for their philosophical rock/pop music.

Almost there ...

Sign in to get your own page with links to favourite songs and more. You are just one click away...

Login with Facebook Login with Google