Log in

One click and you are in

Login with Facebook Login with Google

Why sign up and log in

Guitar Tabs Explorer
Arctic Monkeys bass tabs for Bodypaint live

Bass tabs

Performance: Live Performance on the Jonathan Ross show

🎸 Intro:

G|--------------|--------------|--------------|--------------|
D|--------------|--------------|--------------|--------------|
A|--------------|--------------|--------------|--------------|
E|6-------------|6-------------|6-------------|6-------------|
 1 2 3 4 + a 1 2 3 4 + a 1 2 3 4 + a 1 2 3 4 + a
🎸 Verse 1:
G|--------------------|-------------------|---------------------|-----------------|
D|----------8-------8-|7------------------|---------------------|--------0-5\-----|
A|--------8-------8---|--------7-------7\-|5---------5.5--------|-----------------|
E|6-------------------|----------5.5.-----|--------5-------0-5-4|3----------------|
 1 + 2 + a 3 + 4 e + 1 + 2 + a 3 + 4 e + 1 + 2 + a 3 + 4 e + a 1 + 2 + a 3 + 4 +

G|------------------|-----------------------|-------------------|---------------|
D|----------8-------|--------5-6-7----------|-------------------|---------------|
A|--------8---8---8-|7-----7-------------7\-|5---------5---5----|3.-------------|
E|6-------------6---|------------------5----|--------5---5------|---------------|
 1 + 2 + a 3 + 4 + 1 + 2 e + a 3 + 4 e + a 1 + 2 + a 3 e + 4 + 1 + 2 + 3 + 4 +

G|--------------------|----------------------|------------------|-------------|
D|--------------------|----------------------|------------------|-------------|
A|6---------6.6-----6-|5-------5-4-3---------|3.3-----4---4-4-4-|4---4/--10\--|
E|--------6-------6---|------5-------------3-|------------------|-------------|
 1 + 2 + a 3 + 4 e + 1 + 2 e + a 3 + 4 + a 1 + 2 + 3 + 4 e + 1 + 2 + 3 +


🎸 Verse 2:Rest about 6 bars:
G|----------------------|-----------------|-----------------|-----------------|
D|3/5.--5-----5.--5\--3/|5.--5-----5.--5\-|-----------------|-----------------|
A|----------5-----------|--------5--------|7.--7-----7.--7\-|3.--3-----3.--3\-|
E|----------------------|-----------------|--------7--------|--------3--------|
 a 1 + 2 + a 3 + 4 + a 1 + 2 + a 3 + 4 + 1 + 2 + a 3 + 4 + 1 + 2 + a 3 + 4 +

G|-----------------|-------------------|--------------------|-----------------|
D|-----------------|-------------------|--------------------|-----------------|
A|----------------/|10.-10----10.-10\-/|10.-10----10.-10\--/|7.--7-----7.--7\-|
E|5.--5---0-5.--5--|--------10---------|--------10----------|--------7--------|
 1 + 2 + a 3 + 4 + 1 + 2 + a 3 + 4 + a 1 + 2 + a 3 + 4 + a 1 + 2 + a 3 + 4 +

G|-----------------|-----------------|
D|-----------------|-----------------|
A|3.--3-----3.--3\-|-----------------|
E|--------3--------|5.--5---0-5\-----|
 1 + 2 + a 3 + 4 + 1 + 2 + a 3 + 4 +

🎸 Bridge:
G|---------------|---------------|---------------|--------------------|
D|---------------|---------------|---------------|--------------------|
A|6-------6\-----|10------10\----|6-------6\-----|10------10\-10-9-8-7|
E|---------------|---------------|---------------|--------------------|
 1 + 2 + 3 + 4 + 1 + 2 + 3 + 4 + 1 + 2 + 3 + 4 + 1 + 2 + 3 + 4 e + a

G|-----------------|---------------|---------------|---------------|
D|-----------------|---------------|---------------|---------------|
A|6----------------|6--------------|---------------|---------------|
E|----------------6|---------------|6--------------|6--------------|
 1 + 2 + 3 + 4 + a 1 + 2 + 3 + 4 + 1 + 2 + 3 + 4 + 1 + 2 + 3 + 4 +

G|---------------|---------------|
D|---------------|---------------|
A|---------------|---------------|
E|6--------------|6--------------|
 1 + 2 + 3 + 4 + 1 + 2 + 3 + 4 +

🎸 Chorus:
G|---------|---------|---------|---------|-----------|---------|-----------|
D|---------|---------|---------|---------|-----------|---------|--8--------|
A|6--------|6.6-----6|5-------5|3-3.-----|3-3.----3--|6-6.-----|6-----6---6|
E|--------6|------6--|------5--|--------3|------3---3|--------6|--------6--|
 1 + 2 + a 1 + 2 e + 1 + 2 + a 1 + 2 + a 1 + 2 e + a 1 + 2 + a 1 e + 2 + a

G|-----------|---------|----------|---------|-----------|-----------|---------|
D|-----------|---------|----------|---------|-----------|-----------|---------|
A|5-5.----5\4|3-3.-----|1-3.----3/|6-6.-----|6-6.----6--|5-5.----5--|3-3.-----|
E|------5----|--------3|------3---|-------6-|------6---6|------5---5|--------3|
 1 + 2 e + a 1 + 2 + a 1 + 2 + a 1 + 2 + a 1 + 2 e + a 1 + 2 e + a 1 + 2 + a

G|-----------|---------|---------------|-----------|---------|-----------|
D|-----------|---------|--8------------|-----------|---------|-----------|
A|1-3---3-1--|6-6.-----|6-------6.--6/8|5-5.----5\4|3-3.-----|1-3---3-1--|
E|----3.----3|--------6|----------6----|------5----|--------3|----3.----3|
 1 + a 2 + a 1 + 2 + a 1 e + a 2 e + a 1 + 2 e + a 1 + 2 + a 1 e + 2 + a

G|---------|8----------|-----------|---------|-----------|
D|------8--|--8--------|-----------|---------|-----------|
A|6---6----|----6---6--|5-5.----5--|3-3.-----|1-3---3-1--|
E|--6------|------6---6|------5---5|--------3|----3-----3|
 1 + 2 + a 1 + a 2 + a 1 + 2 e + a 1 + 2 + a 1 + a 2 + a

G|---------|8-----8----|-----------|---------|-----------|
D|------8--|--8-----8--|-----------|---------|-----------|
A|6---6----|----6-----6|5-5.----5\-|3-3.-----|1-3---3-1--|
E|--6------|-----------|------5----|--------3|----3-----3|
 1 + 2 + a 1 + a 2 + a 1 + 2 e + a 1 + 2 + a 1 + a 2 + a

G|---------|8----------|-----------|---------|-----------|
D|------8--|--8--------|-----------|---------|-----------|
A|6---6----|----6---6--|5-5.----5--|3-3.-----|1-3---3-1--|
E|--6------|------6---6|------5---5|--------3|----3-----3|
 1 + 2 + a 1 + a 2 + a 1 + 2 e + a 1 + 2 + a 1 + a 2 + a

G|---------|-----------|-----------|---------|---------------|
D|------8--|-----------|-----------|---------|---------------|
A|6---6----|6---6---6--|5-5.----5\-|3-3.-----|1-3-1-3-1-3-1-3|
E|--6------|--6---6---6|------5----|--------3|---------------|
 1 + 2 + a 1 e + a 2 + 1 + 2 e + a 1 + 2 + a 1 + 2 + 3 + 4 +

G|---------|-----------|-----------|---------|-----------|
D|------8--|-----------|-----------|---------|-----------|
A|6---6----|6---6-6---6|5-5.----5\-|3-3.-----|1-3---3-1--|
E|--6------|--6-----6--|------5----|--------3|----3-----3|
 1 + 2 + a 1 e + a 2 + 1 + 2 e + a 1 + 2 + a 1 + a 2 + a

G|---------|8----------|-----------|---------|-------------|
D|------8--|--8--------|-----------|---------|-------------|
A|6---6----|----6-6/---|5-5.----5--|3-3.-----|1-3-1-3-1-3-1|
E|--6------|-----------|------5---5|--------3|-------------|
 1 + 2 + a 1 e + a 2 + 1 + 2 e + a 1 + 2 + a 1 + 2 + 3 + 4 +

G|---------------|---------------|
D|---------------|---------------|
A|6---6\---------|5---5\--3------|
E|---------------|---------------|
 1 + 2 + 3 + 4 + 1 + 2 + 3 + 4 +


*****************

|  = rest
| \ = slide down
| / = slide up
| h = hammer on
| p = pull off

*****************
arctic monkeys bodypaint live music video
ⓘ Bass guitar tab for 'Bodypaint Live' by Arctic Monkeys, an indie band formed in 2002 from Sheffield, England. Arctic Monkeys is known for their philosophical rock/pop music.

Almost there ...

Sign in to get your own page with links to favourite songs and more. You are just one click away...

Login with Facebook Login with Google