Log in

One click and you are in

Login with Facebook Login with Google

Why sign up and log in

Guitar Tabs Explorer
Arch Enemy tabs for Snow bound

Guitar tabs

You all need to start submiting Arch Enemy!!!
.  - palm mute                  /  - slide up to
  - slide down to              ~  - vibrato
h  - hammer on                  b  - bend
p  - pull off                   Suffixes for bend
ph - pinch harmonic             f - full bend    h - half bend
*  - see comment                r - release      t - tap bend
X  - percussion mute            ~ - vibrato bend
@  - slight palm mute           () - ghost note, sustained note

Tune Gtr to A chord diagramC majorC

--SNOW BOUND--


[Riff A chord diagramA augmentedA] (clean - let ring throughout)
[----------0-------------------------------0---------------0--------]
[--------0---0-----------0-------0-------0---0-----------0---0------]
[*-----0-------0-------0-------0-------0-------0-------0-------0---*]Gtr
[*---5-----------5---5-------4-------2-----------2---2-----------2-*] I
[--7---------------7-------5-------3---------------3----------------]
[--^---------------^-------^-------^---------------^----------------]

                                                                [3tx]
[----------0---------------0---------------0--------3-(3)-----------]
[------3-----3-----------0---0---------------0------5-(5)-----------]
[*---2---2-----2-------0-------0---------0-----0----4-(4)----------*]Gtr
[*-0-------------0---5-----------5-----5---------5--5-(5)----------*] I
[--^---------------2-----------------2--------------3-(3)-----------]
[------------------^---------------0----------------^---------------]
                                   ^

[Lead--Michael Amott]
[--------------------------------------------------------------------]
[--15-13-128~-------x-15-13-12-----------x-15-13-12-----------------]
[*---------sl------x------------12~-----x------------12~------------*]Gtr
[*---------------x--------------------x-----------------------------*] II
[--------------------------------------------------------------------]
[--------------------------------------------------------------------]

[--------------------------------------------------------------------]
[---------------------------------15-13-128~--------x-15-13-12------]
[*-14-12-11---9--11-12_11-9~-(9)--------sl-------x------------12~-*]Gtr
[*---------sl----------p--------sl---------------x------------------*] II
[--------------------------------------------------------------------]
[--------------------------------------------------------------------]

[--------------------------------------------------------------------]
[------x-15-13-12-------------------------------------------12/13/15-]
[*---x------------12~---14-12-11---9--11-12_11-9~--------x---sl-sl-*]Gtr
[*-x----------------------------sl----------p-----------x-----------*] II
[-----------------------------------------------------x--------------]
[--------------------------------------------------------------------]

[Fill 1]
[---------]
[---------]
[*-2-4-5-*]Gtr
[*-------*] I
[--0-(0)--]
[--^------]


[Riff A chord diagramBB] (clean - let ring throughout)
[----------0---------------3---------------3-----------------------]
[------------0---------3-----3---------------3-----------0---------]
[*-----2-------2-----2---2-----2-------0-------0-------0---0------*]Gtr
[*---2---2-------2-0-------------0---0---0-------0----------------*] I
[--0---------------^-------------------------------2-3-------------]
[--^-------------------------------3-----------------^-------------]
                                   ^
[---0---------------0---------------0---------------0-------0-(0)--]
[-----0---------------0---------0-----0---------------0-----1-(1)--]
[*------0-------0-------0-----0---0-----0-------2-------2---2-(2)-*]Gtr
[*--------0---0---0-------0-------------------2---2-------2-2-(2)-*] I
[---------------------------3-------------3-0---------------0-(0)--]
[-----------2---------------^---------------^---------------^------]
            ^


[Solo--Michael Amott]
[--------------17-15-14~---14_15-----------------------------------------]
[--15b~------x---------------h---15~---17_15-17-------x-10-10br---------]
[*---------x-----------------------------p-----sl----x------------------*]Gtr
[*-------x-----------------------------------------x--------------------*] II
[------------------------------------------------------------------------]
[------------------------------------------------------------------------]

[------------------------------------------------------------------------]
[--8b---*10-*10br---*8b---11_10-8----8-10--------------------------------]
[*--------------------------p-----11------------------------------------*]Gtr
[*----------------------------------------*7~---*9b--*10b-9--7----------*] II
[--------------------------------------------------------------10-9b~----]
[------------------------------------------------------------------------]

[------------------------------------------------------------------------]
[--15-13-128~--------x-15-13-12-----------------x-15-13-12--------------]
[*---------sl-------x------------12(14)-11~----x------------12~---------*]Gtr
[*----------------x----------------tr--------x--------------------------*] II
[------------------------------------------------------------------------]
[------------------------------------------------------------------------]

[--------------------------------------]
[--13----------------------------------]
[*----12-11~---9--11-12_11-9(11)------*]Gtr
[*---------------------p----tr--------*] II
[--------------------------------------]
[--------------------------------------]

 _____________________
[* = Pinch harmonics. ]
[_____________________]


[Ending]
[----------0---------------3---------------3------------------]
[------------0---------3-----3---------------3-----------0----]
[*-----2-------2-----2---2-----2-------0-------0-------0---0-*]Gtr
[*---2---2-------2-0-------------0---0---0-------0-----------*] I
[--0---------------^-------------------------------2-3--------]
[--^-------------------------------3-----------------^--------]
                                   ^
                                   [rit - - - - - - - - - - - ]
[--0---------------0---------------0-------|-----------5------]
[----0---------------0---------0-----0-----|-----5---5--------]
[*-----0-------0-------0-----0---0-----0---|*7-5---5---------*]Gtr
[*-------0---0---0-------0-----------------|-----------------*] I
[--------------------------3-------------3-|------------------]
[----------2---------------^-------------^-|------------------]
           ^                               [- - - - - - - - - ]

 _____________________
[* = Natural harmonics]
[_____________________]

Almost there ...

Sign in to get your own page with links to favourite songs and more. You are just one click away...

Login with Facebook Login with Google