Log in

One click and you are in

Login with Facebook Login with Google

Why sign up and log in

Guitar Tabs Explorer
Arch Enemy tabs for Dark of the sun

Guitar tabs

..  - palm mute          /  - slide up to
 \  - slide down to      ~  - vibrato
 h  - hammer on          b  - bend
 p  - pull off            Suffixes for bend
                          ph - pinch harmonic
                           f - full bend    h - half bend
*  - see comment           r - release      t - tap bend
X  - percussion mute       ~ - vibrato bend
@  - slight palm mute     () - ghost note, sustained note

Tune Down 2.5 steps to A chord diagramBB

Dark Of The Sun
Riff A chord diagramA augmentedA            Play Riff A chord diagramA augmentedA  4 Times
|-------------------------------------|
|-------------------------------------|Gtr
|-------------------------------------| I
|-------------------------------------|
|-13--12\----------10--9-9------------|
|-11--10\--000000---8--7-7--0-000-000-|
           ......           . ... ...


Riff A chord diagramBB
|-----------------------------------------------------------------|
|-----------------------------------------------------------------|Gtrs
|-----------------------------------------------------------------|I&II
|-----------------------------------------------------------------|
|-------------------------------3--------------------4-----3------|
|-000-000-000-000-000-000-000-0-1--000-000-000---4H5---3H4---1-0--|
  ... ... ... ... ... ... ... .    ... ... ...

|-----------------------------------------------------------------|
|-----------------------------------------------------------------|Gtrs
|-----------------------------------------------------------------|I&II
|-----------------------------------------------------------------|
|-------------------------------8\--------------5P4----4P3--------|
|-000-000-000-000-000-000-000-0-6\-000-000-000------5------4-1-0--|
  ... ... ... ... .. ... ...  .    ... ... ...             . .

|-----------------------------------------------------------------|
|-----------------------------------------------------------------|Gtrs
|-----------------------------------------------------------------|I&II
|-----------------------------------------------------------------|
|-------------------------------3--------------------4-----3------|
|-000-000-000-000-000-000-000-0-1--000-000-000---4H5---3H4---1-0--|
  ... ... ... ... ... ... ... .    ... ... ...

|---------------------------------------------------------------|
|---------------------------------------------------------------|Gtrs
|---------------------------------------------------------------|I&II
|---------------------------------------------------------------|
|-------------------------------8\--------------5P4----4P3------|
|-000-000-000-000-000-000-000-0-6\-000-000-000------5------4-1--|
  ... ... ... ... ... ... ... .    ... ... ...

Riff A chord diagramC majorC
|---------------------------------------------------------------------------------|
|---------------------------------------------------------------------------------|Gtr
|---------------------------------------------------------------------------------|
I
|----------------------------/10-9-----------------------------------/10-9--------|
|-------/9--10--9(10)*-------------12-10--------/9--10--9(10)*-------------12-10--|
|-0-000----------------8-888--------------0-000----------------8-888--------------|
  . ...                . ...              . ...                . ...

*=Trill


|---------------------------------------------------------------|
|---------------------------------------------------------------|Gtr
|---------------------------------------------------------------| I
|----------------------------/10-9---------------------------1~-|
|-------/9--10--9(10)*--------------12-10---5--3--3P2--4-2-4----|
|-0-000----------------8-888----------------3-------------------|
  . ...                . ...


Play Riff A chord diagramC majorC  1 Time W/Fill 1
Play Riff A chord diagramBB  1 Time
Play Riff A chord diagramC majorC  1 Time
Play Riff A chord diagramC majorC  1 Time W/Fill1


Riff A chord diagramD MajorD
|-----------------------------------------------------------------|
|-----------------------------------------------------------------|Gtrs
|-9-----------------------10-----------------------9---10--9--7---|I&II
|-----7-7---7--9--10--7--------7-7---7--9--10--7------------------|
|-7------------------------8-----------------------7----8--7--5---|
|-----5-5---5--7---8--5--------5-5---5--7---8--5------------------|

|-----------------------------------------------------------------|
|-----------------------------------------------------------------|Gtrs
|--------7---9--7-----------------7-------------------------------|I&II
|-9--10-----------10---7--9--10------10--9--6---------------------|
|--------5---7--5-----------------5------------7------------------|
|-7---8------------8---5--7---8-------8--7--4--5-5555555555555555-|
                                                 ................

|-----------------------------------------------------------------|
|-----------------------------------------------------------------|Gtrs
|-9-----------------------10-----------------------9---10--9--7---|I&II
|-----7-7---7--9--10--7--------7-7---7--9--10--7------------------|
|-7------------------------8-----------------------7----8--7--5---|
|-----5-5---5--7---8--5--------5-5---5--7---8--5------------------|

|------------------------------------------------|
|------------------------------------------------|Gtrs
|--------7---9--7-----------------7--------------|I&II
|-9--10-----------10---7--9--10------10--9--6----|
|--------5---7--5-----------------5------------7-|
|-7---8------------8---5--7---8-------8--7--4--5-|

Play Riff A chord diagramA augmentedA  4 Times
Play Riff A chord diagramBB  1 Time
Play Riff A chord diagramC majorC  1 Time
Play Riff A chord diagramC majorC  1 Time W/Fill 1
Play Riff A chord diagramD MajorD  1 Time


Solo


Riff A chord diagramE MajorE                                                      Play 2 Times
|-----------------------------------------------------------------------|
|-----------------------------------------------------------------------|Gtr
|-----------------------------------------------------------------------| I
|----------------------/10-9-7(9)*-------------------------/10-9-7(9)*--|
|----/9h10-9(10)*-----------------------/9h10-9(10)*--------------------|
|-0-----------------8----------------0-----------------8----------------|


|----------------------------------------------------------------|
|---------------------------------------------8--------------8~~-|Gtr
|-------------------------------------------7---7--------6-9-----| I
|-----------------------/10-9-7(9)*-------9------------7---------|
|----/9h10-9(10)*----------------------10--------10--------------|
|-0-----------------8--------------------------------------------|


Riff A chord diagramFF      W/ 2nd                                Play 2 Times
|-------------------------------------------------------------|
|-------------------------------------------------------------|Gtr
|-------------------------------------------------------------| I
|-------------------------------------------------------------|
|-7"---------------------2"----------7"--------------------5"-|
|--------8"------3"------------------------8"------3"---------|

Play Riff A chord diagramBB  1 Time
Play Riff A chord diagramC majorC  1 Time
Play Riff A chord diagramC majorC  1 Time W/Fill 1


Riff D.1                                              Play 2 Times
|-----------------------------------------------------------------|
|-----------------------------------------------------------------|Gtrs
|-9-----------------------10-----------------------9---10--9--7---|I&II
|-----7-7---7--9--10--7--------7-7---7--9--10--7------------------|
|-7------------------------8-----------------------7----8--7--5---|
|-----5-5---5--7---8--5--------5-5---5--7---8--5------------------|


|-----------------------------------------------------------------|
|-----------------------------------------------------------------|Gtrs
|--------7---9--7-----------------7-------------------------------|I&II
|-9--10-----------10---7--9--10------10--9--6--7------------------|
|--------5---7--5-----------------5-------------------------------|
|-7---8------------8---5--7---8-------8--7--4--5-5555555555555555-|
                                                 ................


Riff A chord diagramG+G
|-----------------------------------------------------------|
|-----------------------------------------------------------|Gtr
|-9----------------------------9--------10------------------| I
|-------------7--7-----10--12-----10-----------------7--7---|
|-7----------------------------7---------8------------------|
|-------------5--5------8--10------8-----------------5--5---|


|------------------------------------------------------|
|------------------------------------------------------|Gtr
|---------9---------9---10--9--7----------7---9--7-----| I
|-10--12-----10--------------------9--10------------10-|
|---------7---------7----8--7--5----------5---7--5-----|
|--8--10------8--------------------7---8-------------8-|


|------------------------------------------------------------|
|------------------------------------------------------------|Gtr
|-5--7--9-----------7--9--10-----------------10--9-----------| I
|-----------7--7---------------5--5---7--6-------------------|
|-3--5--7-----------5--7---8------------------8--7----7-(7)\-|
|-----------5--5---------------3--3---5--4------------5-(5)\-|

Almost there ...

Sign in to get your own page with links to favourite songs and more. You are just one click away...

Login with Facebook Login with Google