Log in

One click and you are in

Login with Facebook Login with Google

Why sign up and log in

Guitar Tabs Explorer
Arcade Fire tabs for Rebellion

Guitar tabs

song: rebellion (lies)
artist: Arcade Fire
this song is super easy

(guitar 1 plays through the whole song, the numbers
are just so guitar 2 knows when to come in)

guitar 1:
(x8)
--------------------------------------------
--------------------------------------------
--------------------------------------------
--------------------------------------------
--------------------------------------------
-6-6-6-6--11-11-11-11--6-6-6-6--12-12-12-12-

guitar 2:
play this twice:
---------------------------------------------
---------------------------------------------
---------------------------------------------
---------------------------------------------
-6--6-10----6--6-10--13----------------------
---------------------------------------------


guitar 1:
(x6)
--------------------------------------------
--------------------------------------------
--------------------------------------------
--------------------------------------------
--------------------------------------------
-6-6-6-6--11-11-11-11--6-6-6-6--12-12-12-12-

guitar 2:
play this twice:
---------------------------------------------
---------------------------------------------
---------------------------------------------
---------------------------------------------
-6--6-10----6--6-10--13----------------------
---------------------------------------------

guitar 1:
(x4)
--------------------------------------------
--------------------------------------------
--------------------------------------------
--------------------------------------------
--------------------------------------------
-6-6-6-6--11-11-11-11--6-6-6-6--12-12-12-12-


guitar 2:
play this twice:
---------------------------------------------
---------------------------------------------
---------------------------------------------
---------------------------------------------
-6--6-10----6--6-10--13----------------------
---------------------------------------------


guitar 1:
(for the rest of the song)
--------------------------------------------
--------------------------------------------
--------------------------------------------
--------------------------------------------
--------------------------------------------
-6-6-6-6--11-11-11-11--6-6-6-6--12-12-12-12-

Almost there ...

Sign in to get your own page with links to favourite songs and more. You are just one click away...

Login with Facebook Login with Google