Log in

One click and you are in

Login with Facebook Login with Google

Why sign up and log in

Guitar Tabs Explorer
Arachnaspore 3001 chords for Death by spore

Guitar chords

#-- File created with Instab - http://www.pconline.com/~smcarey/instab.html

Title: Death By Spore
Album: Sportacular

INTRO - Do this 3 times
------------------------------------------------------------------------------
------------------------------------------------------------------------------
-----1-------1--------2-------2-----------------------------------------------
---2---2---2---2----0---0---0---0---------------------------------------------
-2-------2--------2-------2---------------------------------------------------
------------------------------------------------------------------------------

and then on the fourth do this.
------------------------------------------------------------------------------
------------------------------------------------------------------------------
-----1-------1-------2--------------------------------------------------------
---2---2---2---2---0----------------------------------------------------------
-2-------2-------0------------------------------------------------------------
------------------------------------------------------------------------------


VERSES
A chord diagramE MajorE               A chord diagramD MajorD               A chord diagramC majorC               A chord diagramE MajorE
-0--0--0--0--0---2--2--2--2--2---0--0--0--0--0---0--0--0--0--0----------------
-0--0--0--0--0---3--3--3--3--3---1--1--1--1--1---0--0--0--0--0----------------
-1--1--1--1--1---2--2--2--2--2---0--0--0--0--0---1--1--1--1--1----------------
-2--2--2--2--2---0--0--0--0--0---2--2--2--2--2---2--2--2--2--2----------------
-2--2--2--2--2---0--0--0--0--0---3--3--3--3--3---2--2--2--2--2----------------
-0--0--0--0--0---0--0--0--0--0---0--0--0--0--0---0--0--0--0--0----------------


CHORUS
A chord diagramFF               A chord diagramA augmentedA
-1--1--1--1--1---0--0--0--0--0------------------------------------------------
-1--1--1--1--1---2--2--2--2--2------------------------------------------------
-2--2--2--2--2---2--2--2--2--2------------------------------------------------
-3--3--3--3--3---2--2--2--2--2------------------------------------------------
-3--3--3--3--3---0--0--0--0--0------------------------------------------------
-1--1--1--1--1---0--0--0--0--0------------------------------------------------

Do three times and then...
A chord diagramD MajorD               A chord diagramD MajorD
-2--2--2--2--2---2--2--2--2--2------------------------------------------------
-3--3--3--3--3---3--3--3--3--3------------------------------------------------
-2--2--2--2--2---2--2--2--2--2------------------------------------------------
-0--0--0--0--0---0--0--0--0--0------------------------------------------------
-0--0--0--0--0---0--0--0--0--0------------------------------------------------
-0--0--0--0--0---0--0--0--0--0------------------------------------------------

Almost there ...

Sign in to get your own page with links to favourite songs and more. You are just one click away...

Login with Facebook Login with Google