Log in

One click and you are in

Login with Facebook Login with Google

Why sign up and log in

Guitar Tabs Explorer
April Wine tabs for Could have been a lady

Guitar tabs

Band: April Wine
Song title: Could Have Been A chord diagramA augmentedA Lady

Tab Notation:

3h5  = Hammer on    5~  = vibrato (length vary)
6p7  = Pull Off   17bd  = Bend Downward
12/2 = Slide      16bu  = Bend Upward
e---------------------|-------------------------|
B---------------------|-------------------------|
G---------------------|-------------------------|
D------3---5---3------|------3---5---3----------|
A-3h5----5---5---5h3p5|-3h5----5---5---5h3p5----|
E---------------------|-------------------------|

e---------------------|-------------------------|
B---------------------|-------------------------|
G---------------------|-------------------------|
D------3---5---3------|------3---5---3----------|
A-3h5----5---5---5h3p5|-2h5----5---5---5h2p5----|
E---------------------|-------------------------|

e-----------------------------------------------|
B-17b--17bd-bu-17bd-bu-17-15--------------------|
G---------------------------16-16-bu-bd-bu bd---|
D-----------------------------------------------|
A-----------------------------------------------|
E-----------------------------------------------|
                          /
e------------------------|----------------------|
B-17bd-bu-17bd-bu-15-----|----------------------|
G-------------------16-14|o--------------------o|
D------------------------|o--7--5---7~~~-------o|
A------------------------|---5--3-5-5~~~--------|
E------------------------|--------3-------------|
                                              /

ⓘ Guitar tab for 'Could Have Been A Lady' by April Wine, a rock band formed in 1969 from Halifax, Nova Scotia, Canada

Almost there ...

Sign in to get your own page with links to favourite songs and more. You are just one click away...

Login with Facebook Login with Google