Log in

One click and you are in

Login with Facebook Login with Google

Why sign up and log in

Guitar Tabs Explorer
Appleseed Cast tabs for Steps and numbers

Guitar tabs

Capo 4 (tab relative to capo)


intro/verse

e-----------------------
b-----------------------
g---0--0-----0----------
d--9-9------0-2-0-------
a-11--11-5/3---3--------
e-----------------3-----

e------------
b------------
g------------
d-4-4-5-5/12-
a------------
e------------


e------------------------------------------------
b------------------------------------------------
g------------------------------------------------
d-12-12-12-12-12-12-12-10-10-10-10-10-10-10-10---
a------------------------------------------------
e------------------------------------------------

e---------------------------------
b---------------------------------
g---------------------------------
d-9-9-9-9-9-9-9-9-5-5-4-4-4-4/12--
a---------------------------------
e---------------------------------


chorus (stand there...)

e----------------------------------------
b----0----0----0----0---0---0---0---0----
g---0-0--0-0--0-0--0-0-0-0-0-0-0-0-0-0---
d-10---10---10---10---9---9---9---9------
a----------------------------------------
e----------------------------------------

do you feel alone...

e-----------------------
b-----------------------
g-----------------0-----
d-5-4-2-4-0-5-4--2-2----
a---------------3---3-2-

outro

e------------
b------------
g------------
d-2-2-2-2-2--
a-2-2-2-2-2--
e-0-0-0-0-0--
e------------


guitar 1 A chord diagramE minorEm A chord diagramG+G

guitar 2

e----------------------------
b----------------------------
g----------------------------
d-9-7-5-7-5-4-5-4-5-4-2------
a----------------------------
e----------------------------

if anyone has a better way of playing this song, or just wants to comment, please e-mail me at woweezowee_87@hotmail.com

Other versions of Steps And Numbers

Steps and numbersChords

Almost there ...

Sign in to get your own page with links to favourite songs and more. You are just one click away...

Login with Facebook Login with Google