Log in

One click and you are in

Login with Facebook Login with Google

Why sign up and log in

Guitar Tabs Explorer
Apocalyptica tabs for Repressed

Guitar tabs

TUNING - DROP A chord diagramBB TUNING.  (DROP A chord diagramD MajorD TUNING EXCEPT MOVE ALL THE STRINGS DOWN 1 1/2 STEPS)


Intro:

|-----------|
|-----------|
|-----------|
|-----------|
|-----------|
|--4-1-1-4--|

Beginning:

|---------------|
|--------|------|
|-----2--|------|
|--1--2--|-4--5-|      THEN JUST SLIDE DOWN THEN UP THEN DOWN THE A chord diagramBB STRING
|--1--0--|-4--5-|
|--1-------4--5-|


Verse:

|------------|
|------------|
|------------|
|--3-5-6-6-2-|
|--3-5-6-6-2-|
|--3-5-6-6-2-|

Build up to to chorus (PHASE 1):

GU.1:
|---------------------------|
|------------|-----2------3-|
|---1-3---1-4|-1-4----1-4---|
|-3-----3----|--------------|
|------------|--------------|
|---------------------------|

GU.2:
|--6--4--7-----------|
|-----------|--------|
|-----------|--------|
|-----------|--------|
|-----------|--4--5--|
|--------------------|

CHORUS:
(GU.1+2)
|--------------------------------------------------------------------------|
|---------|--------|--------|---------|---------|--------|--------|--------|
|--8-3-11-|--------|--------|---------|----3-11-|--------|--------|--------|
|--8-3-11-|--6-6-6-|--9-9-9-|--11-4-3-|--1-3-11-|--------|--------|--11-12-|
|--6-1-9--|--6-6-6-|--9-9-9-|--11-4-3-|--1-1-9--|--------|--------|--11-12-|
|------------6-6-6----9-9-9----11-4-3----1---------6-6-6----9-9-9----11-12-|

Build up to chorus (PHASE 2):
GU.1
|-----------------------------------------|
|--6H7-7H9-9-10(V)-|--9H10 10H12 12 13(V)-|
|------------------|----------------------|
|------------------|----------------------|   THEN BACK TO CHORUS
|------------------|----------------------|
|-----------------------------------------|

GU.2:
|---------------------|
|----------|----------|
|----------|----------|
|--1--4--7-|----------|     THEN BACK TO CHORUS
|----------|----------|
|-------------1--4--7-|


ENDING (PT.1):    (GUITAR 1 JUST REPEAT CHORUS)
(GU.2)
|-------------------------|
|-------------------------|
|-------------------------|
|--1--8--6--3--4--6--8--1-|    THEN JUST REPEAT ''BEGINNING'' UNTIL THE END
|-------------------------|
|-------------------------|

             (the end finihes with this one bar chord)

                        |---------|
                        |---------|
                        |---------|
                        |----1----|
                        |----1----|
                        |----1----|


KEY TERMS!!:

(V) = VIBRATA (VIBRATE THE STRING)
 H  = HOLD (HOLD THE FIRST NOTE DOWN AND PLACE FINGER ON NEXT NOTE WITHOUT LIFTING FIRST)
ⓘ Guitar tab for 'Repressed' by Apocalyptica, a symphonic metal band formed in 1993 from Helsinki, Finland

Almost there ...

Sign in to get your own page with links to favourite songs and more. You are just one click away...

Login with Facebook Login with Google