Log in

One click and you are in

Login with Facebook Login with Google

Why sign up and log in

Guitar Tabs Explorer
Apocalyptica bass tabs for Im not jesus

Bass tabs

-------------------------------------------------------------------------------
             I'M NOT JESUS - Apocalyptica
-------------------------------------------------------------------------------

Tabbed by: WalterBrow / WB-Bass
E-mail: walterbrowbass@gmail.com

Check out the cover video

Submitted by Norman, no credit to me


Tuning: Standard

Dirty little secret... 00:00
G|-------------------| or G|-------------------| 10x
D|-------------------|  D|-------------------|
A|-------------------|  A|-------------------|
E|-7-9-9--7-9-9-9-10-|  E|-2-4-4--2-4-4-4-5--|


Do you remember me ... 00:34
G|----------------------------------| 1x
D|----------------------------------|
A|----------------------------------|
E|-0h2-2-2-2--0h2-2-2-2--0h2-2-2-2--|


When your world comes crashing down... 00:42
G|---------------------------------------------------|
D|---------------------------------------------------|
A|---------------------------------------------------|
E|-7h9-9-9-9-9-9-7-7-7-7-7-5-5-5-5-5-4-4-4-4-5-5-7-7-|

G|---------------------------------------------------|
D|---------------------------------------------------|
A|---------------------------------------------------|
E|-9-9-9-9-9-9-7-7-7-7-7-5-5-5-5-5-4-4-4-4-5-5-7-7---|


01:05
G|-------------------| or G|-------------------| 8x
D|-------------------|  D|-------------------|
A|-------------------|  A|-------------------|
E|-7-9-9--7-9-9-9-10-|  E|-2-4-4--2-4-4-4-5--|


Do you remember me ... 01:28
G|---------------------------------------------| 1x
D|---------------------------------------------|
A|---------------------------------------------|
E|-0h2-2-2-2--0h2-2-2-2--0h2-2-2-2--0h2-2-2-2--|


Do you remember... 01:39
G|-------------------| or G|-------------------| 2x
D|-------------------|  D|-------------------|
A|-------------------|  A|-------------------|
E|-7-9-9--7-9-9-9-10-|  E|-2-4-4--2-4-4-4-5--|


When your world comes crashing down... 01:45
G|---------------------------------------------------|
D|---------------------------------------------------|
A|---------------------------------------------------|
E|-7h9-9-9-9-9-9-7-7-7-7-7-5-5-5-5-5-4-4-4-4-5-5-7-7-|

G|---------------------------------------------------|
D|---------------------------------------------------|
A|---------------------------------------------------|
E|-9-9-9-9-9-9-7-7-7-7-7-5-5-5-5-5-4-4-4-4-5-5-7-7---|


I will not forgive... 02:08
G|----------------------------------------------------------------------| 2x
D|----------------------------------------------------------------------|
A|-----------------------------7h9p7-------------------------6-6-6h7p6--|
E|-9-9-9-9-9-9-9-9-0-0-0-0-0-0-------9-9-9-9-9-9-9-9-0-0-0-0------------|


Do you remember me ... 02:30
G|---------------------------------------------| 1x
D|---------------------------------------------|
A|---------------------------------------------|
E|-0h2-2-2-2--0h2-2-2-2--0h2-2-2-2--0h2-2-2-2--|


02:42
G|-------------------| or G|-------------------| 2x
D|-------------------|  D|-------------------|
A|-------------------|  A|-------------------|
E|-7-9-9--7-9-9-9-10-|  E|-2-4-4--2-4-4-4-5--|


When your world comes crashing down... 02:47
G|---------------------------------------------------|
D|---------------------------------------------------|
A|---------------------------------------------------|
E|-9-9-9-9-9-9-7-7-7-7-7-5-5-5-5-5-4-4-4-4-5-5-7-7---|

G|---------------------------------------------------|
D|---------------------------------------------------|
A|---------------------------------------------------|
E|-9-9-9-9-9-9-7-7-7-7-7-5-5-5-5-5-------------------|


I'm not jesus... (03:07)
G|-----------------------------------------------------------------------------|
D|-----------------------------------------------------------------------------|
A|-----------------------------------------------------------------------------|
E|-4-4-4-4-5-5-7-7-4-4-4-4-5-5-7-7-5-5-5-5-5-5-5-5-2-2-2-2-2-2-2-2-2-2-2-2-9~--|


| h hammer-on
| p pull-off
| ~ let ring
ⓘ Bass guitar tab for 'Im Not Jesus' by Apocalyptica, a symphonic metal band formed in 1993 from Helsinki, Finland

Almost there ...

Sign in to get your own page with links to favourite songs and more. You are just one click away...

Login with Facebook Login with Google