GuitarTabsExplorer icon
GuitarTabsExplorer icon

Log in

Songbook

  • Log in to add and see bookmarks

Last visited songs

    No songs visited yet...

Mr Chu by APink

Tabs

e------------2----------2-------------2-----------------7---7---------------------------------------|
B-2--5-5-2-5----5-4-2------2--5-5-2-5----5-4-5-7-9--4-5---5---5--5-4-5-7-9--9-10-9-7-5-2-0----------|
G---------------------4-----------------------------------------------------------------------------|
D---------------------------------------------------------------------------------------------------|
A---------------------------------------------------------------------------------------------------|
E---------------------------------------------------------------------------------------------------|

e------------2----------2-------------2-----------------7---7--------------------------9--7---------|
B-2--5-5-2-5----5-4-2------2--5-5-2-5----5-4-5-7-9--4-5---5---5--5-4-5-7-9--9-10-9-7-5--------------|
G---------------------4-----------------------------------------------------------------------------|
D---------------------------------------------------------------------------------------------------|
A---------------------------------------------------------------------------------------------------|
E---------------------------------------------------------------------------------------------------|

e-------7-7-----------7-7---------------------------7-5-7-5-7-3----5-3-5-3-2------------------------|
B-8-10--8-8--10-8-10--8-8--10-8-10-12-13-12-10-8--5--------------3------------0-1-3-5-8-3-5-8-------|
G-------7-7-----------7-7---------------------------------------------------------------------------|
D---------------------------------------------------------------------------------------------------|
A---------------------------------------------------------------------------------------------------|
E---------------------------------------------------------------------------------------------------|

e----9--7-7-----------7-7---------------------------7-5-7-5-7-3----5-3-5-3-2---7-8-7-5-3-5-8--3-5-3-|
B-------8-8--10-8-10--8-8--10-8-10-12-13-12-10-8--5--------------3----------------------------------|
G-------7-7-----------7-7---------------------------------------------------------------------------|
D---------------------------------------------------------------------------------------------------|
A---------------------------------------------------------------------------------------------------|
E---------------------------------------------------------------------------------------------------|


Please help me improve this tab ^^

Other versions of Mr Chu

Alternative guitar chords and tabs for Mr chu by APink

VersionType
Mr chuChords

[ Privacy | About us ]

Welcome to the guitar community

Why join and log in?
- Get songbook with favourite songs
- Get custom made front page
- Submit chords and tabs
- Submit guitar-cover videos
- Get a lot of thumbs up for your work

Songbook

Last visited songs

Site
Home
Search
Community
Submit chords

Video

No video for this page. Check out how you can submit guitar-cover videos here

Search tabs and chords

Browse by artist

A B C D E F G H I J K L M N O P Q R S T U V W X Y Z #


Menu

Search

Video

Bookmark

Login