Log in

One click and you are in

Login with Facebook Login with Google

Why sign up and log in

Guitar Tabs Explorer
Anvil bass tabs for Metalon metal

Bass tabs

Metal On Metal
Standard Tuning- EADG


Intro
G------------------------------------------------|
D------------------------------------------------|
A------------------------------------------------|
E--1--0--1--4------------1--0--1--0--------------|
Main Riff
G------------------------------------------------|
D------------------------------------------------|
A------------------------------------------------|
E--1--0--1--4------4--x-x-1--0--1--6------6--x-x-|

G------------------------------------------------|
D------------------------------------------------|
A------------------------------------------------|
E--1--0--1--4------4--x-x-3--0--1--0---------x-x-|


Verse Riff
G-----------1----1-------------------3-----------|
D--3--2--3--------------2-2-3--2--3--------------|
A------------------------------------------------|
E------------------------------------------------|

G-----------1----1----1--------------------------|
D--3--2--3--------------2-2-3--2--3--------------|
A------------------------------------------------|
E------------------------------------0-----------|


Verse Break
G------------------------------------------------|
D------------------------------------------------|
A------------------------------------------------|
E--1--1-1-1--1----3--4----1--1-1-1--1----1--0----|

Bridge

G------------------------------------------------|
D------------------------------------------------|
A------------------------------------------------|
E--6----6----6----x-x-x-x-6----6----6----x-x-x-x-|


G------------------------------------------------|
D------------------------------------------------|
A------------------------------------------------|
E--6----6----6----6--x-x-1--0--1--4------6--x-x--|

Order


Intro(x1)

Main Riff(x2)

Verse Riff(x2)

Main Riff(x1)

Verse Riff(x1)

Verse Break(x2)

Verse Riff(x2)

Bridge(x2)

Main Riff(x1)

Verse Riff(x2)

Verse Break(x2)

Main Riff(x4), Solo

Verse Riff(x3)

Bridge(x2)

Main Riff(x5)

x = Dead Note

Almost there ...

Sign in to get your own page with links to favourite songs and more. You are just one click away...

Login with Facebook Login with Google