Log in

One click and you are in

Login with Facebook Login with Google

Why sign up and log in

Guitar Tabs Explorer
Antiseen tabs for Sabu

Guitar tabs

Main Riff                x6
E--------------------------|
B--------------------------|
G---------5------------7-5-|
D-7-7-7-7-5-5--7-7-7-7-7-5-|
A-7-7-7-7-3-5--7-7-7-7-5-3-|
E-5-5-5-5---3--5-5-5-5-----|

Verse                                          x4
E------------------------------------------------|
B------------------------------------------------|
G--------------------5-----------------------7-5-|
D-7-7-7-7----7-7-7-7-5-5--7-7-7-7----7-7-7-7-7-5-|
A-7-7-7-7----7-7-7-7-3-5--7-7-7-7----7-7-7-7-5-3-|
E-5-5-5-5----5-5-5-5---3--5-5-5-5----5-5-5-5-----|


Main Riff                x2
E--------------------------|
B--------------------------|
G---------5------------7-5-|
D-7-7-7-7-5-5--7-7-7-7-7-5-|
A-7-7-7-7-3-5--7-7-7-7-5-3-|
E-5-5-5-5---3--5-5-5-5-----|


Verse                                          x4
E------------------------------------------------|
B------------------------------------------------|
G--------------------5-----------------------7-5-|
D-7-7-7-7----7-7-7-7-5-5--7-7-7-7----7-7-7-7-7-5-|
A-7-7-7-7----7-7-7-7-3-5--7-7-7-7----7-7-7-7-5-3-|
E-5-5-5-5----5-5-5-5---3--5-5-5-5----5-5-5-5-----|


Chorus ("Homicidal, Suicidal, Genocidal, Oh My God!")
E-------------------------------------------------------------------------|
B-------------------------------------------------------------------------|
G-6/7-7-7-7-7-7-7-7-6/7-7-7-7-7-7-7-7-6/7-7-7-7-7-7-7-7-6/7-7-7-7-7-7-7-7-|
D-6/7-7-7-7-7-7-7-7-6/7-7-7-7-7-7-7-7-6/7-7-7-7-7-7-7-7-6/7-7-7-7-7-7-7-7-|
A-4/5-5-5-5-5-5-5-5-4/5-5-5-5-5-5-5-5-4/5-5-5-5-5-5-5-5-4/5-5-5-5-5-5-5-5-|
E-------------------------------------------------------------------------|


Main Riff               x4
E--------------------------|
B--------------------------|
G---------5------------7-5-|
D-7-7-7-7-5-5--7-7-7-7-7-5-|
A-7-7-7-7-3-5--7-7-7-7-5-3-|
E-5-5-5-5---3--5-5-5-5-----|


Verse                                          x4
E------------------------------------------------|
B------------------------------------------------|
G--------------------5-----------------------7-5-|
D-7-7-7-7----7-7-7-7-5-5--7-7-7-7----7-7-7-7-7-5-|
A-7-7-7-7----7-7-7-7-3-5--7-7-7-7----7-7-7-7-5-3-|
E-5-5-5-5----5-5-5-5---3--5-5-5-5----5-5-5-5-----|


Chorus       ("Homicidal, Suicidal, Genocidal, Oh My God!")
E-------------------------------------------------------------------------|
B-------------------------------------------------------------------------|
G-6/7-7-7-7-7-7-7-7-6/7-7-7-7-7-7-7-7-6/7-7-7-7-7-7-7-7-6/7-7-7-7-7-7-7-7-|
D-6/7-7-7-7-7-7-7-7-6/7-7-7-7-7-7-7-7-6/7-7-7-7-7-7-7-7-6/7-7-7-7-7-7-7-7-|
A-4/5-5-5-5-5-5-5-5-4/5-5-5-5-5-5-5-5-4/5-5-5-5-5-5-5-5-4/5-5-5-5-5-5-5-5-|
E-------------------------------------------------------------------------|


Solo
E-------------------------|
B-------------------------|
G-2-2---2-2---2-2---2-2---|
D-2-2---2-2---2-2---2-2---|
A-0-0---0-0---0-0---0-0---|
E-------------------------|


Main Riff               x2
E--------------------------|
B--------------------------|
G---------5------------7-5-|
D-7-7-7-7-5-5--7-7-7-7-7-5-|
A-7-7-7-7-3-5--7-7-7-7-5-3-|
E-5-5-5-5---3--5-5-5-5-----|


Chorus  ("Homicidal, Suicidal, Genocidal, Oh My God!")
E-------------------------------------------------------------------------|
B-------------------------------------------------------------------------|
G-6/7-7-7-7-7-7-7-7-6/7-7-7-7-7-7-7-7-6/7-7-7-7-7-7-7-7-6/7-7-7-7-7-7-7-7-|
D-6/7-7-7-7-7-7-7-7-6/7-7-7-7-7-7-7-7-6/7-7-7-7-7-7-7-7-6/7-7-7-7-7-7-7-7-|
A-4/5-5-5-5-5-5-5-5-4/5-5-5-5-5-5-5-5-4/5-5-5-5-5-5-5-5-4/5-5-5-5-5-5-5-5-|
E-------------------------------------------------------------------------|


Main Riff
E--------------------------|
B--------------------------|
G---------5------------7-5-|
D-7-7-7-7-5-5--7-7-7-7-7-5-|
A-7-7-7-7-3-5--7-7-7-7-5-3-|
E-5-5-5-5---3--5-5-5-5-----|


Chorus    ("Homicidal, Suicidal, Genocidal, Oh My God!")
E-------------------------------------------------------------------------|
B-------------------------------------------------------------------------|
G-6/7-7-7-7-7-7-7-7-6/7-7-7-7-7-7-7-7-6/7-7-7-7-7-7-7-7-6/7-7-7-7-7-7-7-7-|
D-6/7-7-7-7-7-7-7-7-6/7-7-7-7-7-7-7-7-6/7-7-7-7-7-7-7-7-6/7-7-7-7-7-7-7-7-|
A-4/5-5-5-5-5-5-5-5-4/5-5-5-5-5-5-5-5-4/5-5-5-5-5-5-5-5-4/5-5-5-5-5-5-5-5-|
E-------------------------------------------------------------------------|


Main Riff
E--------------------------|
B--------------------------|
G---------5------------7-5-|
D-7-7-7-7-5-5--7-7-7-7-7-5-|
A-7-7-7-7-3-5--7-7-7-7-5-3-|

Almost there ...

Sign in to get your own page with links to favourite songs and more. You are just one click away...

Login with Facebook Login with Google