Log in

One click and you are in

Login with Facebook Login with Google

Why sign up and log in

Guitar Tabs Explorer
Antiseen bass tabs for I saw the light

Bass tabs

Intro (Only played the 1st time)
G-----------------|
D-----------------|
A-----------------|
E-5-5-5-5-5-5-5-5-|

Rest of Song
G-----------------------------------------------------------------|
D-----------------------------------------------------------------|
A-------------------------------------------------5-5-5-5-5-5-5-5-|
E-5-5-5-5-5-5-5-5-5-5-5-5-5-5-5-5-5-5-5-5-5-5-5-5-----------------|

G---------------------------------------------------------------------------------|
D---------------------------------------------------------------------------------|
A-------------------------------------------------7-7-7-7-7-7-7-7-----------------|

Almost there ...

Sign in to get your own page with links to favourite songs and more. You are just one click away...

Login with Facebook Login with Google