Log in

One click and you are in

Login with Facebook Login with Google

Why sign up and log in

Guitar Tabs Explorer
Antischism bass tabs for Failsafe

Bass tabs

Title: Failsafe


Album: Still Life

Intro:

g---------|------------------------------|------------------------------|

d---------|------------------------------|------------------------------|

a-2---2---|-0-2--2-0-2--2-5-2--2-3-3-3-3-|-0-2--2-0-2--2-5-2--2-3-3-3-3-|

e---------|------------------------------|------------------------------|


Verse:

g------------------------------|

d------------------------------| X4

a-0-2--2-0-2--2-5-2--2-3-3-3-3-|

e------------------------------|

1. At...

2. These...

3. So..


Chorus:

g-----------------------------|-------------------------|

d-0------0----0-2-2--2--2-2-2-|-0------0------2---------|

a---2--2---2-------(2)--------|---2--2---2--2---4--5----|

e-----------------------------|-------------------------|

Learn, Learn, Teach! Learn & Teach!

g-----------------------------|-------------------------|

d-0------0----0-2-2--2--2-2-2-|-0------0------2---------|

a---2--2---2-------(2)--------|---2--2---2--2---4--5--5-|

e-----------------------------|-------------------------|

Learn, Learn, Teach! Anarchy and

g-----------------------|-----------------------|

d-----------------------|-----------------------|

a-4--4-4--4--5--5-5--5--|-4--4-4--4---5---------|

e-----------------------|-----------------------|

Peace!



Bridge: Lots of feedback and noise

After Bridge:

g-----------------|-----------------|

d-----------------|-----------------|

a--(guitar alone)-|-2---2---2---2---|

e-----------------|-----------------|

OH! OH! OH! OH!

________________________________________________________________________________

Almost there ...

Sign in to get your own page with links to favourite songs and more. You are just one click away...

Login with Facebook Login with Google