Log in

One click and you are in

Login with Facebook Login with Google

Why sign up and log in

Guitar Tabs Explorer
Anthrax tabs for Stealing from a thief

Guitar tabs

1=D#  4=C#
2=A#  5=G#
3=F#  6=C#

|------------------|
|------------------|
|------------------|
|------------------|
|------------------|
|02h3p2p0-230-02320|  3x then


|----------|
|----------|
|----------|
|----------|
|----5----5|
|02325-0235|


Verse
|--------|
|--------|
|--------|
|0-2-3-57|
|0-2-3-57|
|0-2-3-57|


|-----------|
|-----------|
|-----------|
|0-2-3-57---|
|0-2-3-57---|
|0-2-3-57-75|


Chorus
|--------------------------|
|--------------------------|
|--------------------------|
|0-----5-----7-----3---5---|
|0-----5-----7-----3---5---|
|0-----5-----7-----3---5---|


Bridge
|---------|
|---------|
|---------|
|0--3--765|
|0--3--765|
|0--3--765|


2nd Chorus
|--------------------------|
|--------------------------|
|--------------------------|
|00000055555577777733335555|
|00000055555577777733335555|
|00000055555577777733335555|


Tabbed by:  John Edwards

Almost there ...

Sign in to get your own page with links to favourite songs and more. You are just one click away...

Login with Facebook Login with Google