Log in

One click and you are in

Login with Facebook Login with Google

Why sign up and log in

Guitar Tabs Explorer
Anthrax tabs for Startin up a posse

Guitar tabs

Startin' Up A chord diagramA augmentedA Posse
-------------------
by Anthrax
from Attack Of The Killer B's
Tabbed by James Lee (jameslee@leland.stanford.edu)

verse:

|-----------------|
|---------1---1---|
|---------0---0---|
|---------2---2---|
|---0-2-3-------3-|
|-3---------3-----| keep repeating

|----------15-|
|-13-15/17----|
|-------------|
|-------------|
|-------------|
|-------------| play this over and over in the background

"Now I'm gonna tell ya a ....

 So now I'm startin' up ....


prechorus:

|---------1-------------------------|
|---------0-----------------1---1---|
|---------0-----------------0---0---|
|---------0-----------------2---2---|
|-3-2-0---------------0-2-3-------3-|
|-------3-----------3---------3-----|

"You fuckin' ...

play verse guitar part

"You say our records are ....

play 3/4 of the pre chorus

"You fuckin' whores..."

chorus:

"Shit, fuck, satan, death, sex....
|----------------------------------------------------
|----------------------------------------------------
|----------------------------------------------------
|-10----8-8-8/10-10----8-8-8/10-10----8-8-8/10-10----
|-10----8-8-8/10-10----8-8-8/10-10----8-8-8/10-10----
|-8-----6-6-6/8--8-----6-6-6/8--8-----6-6-6/8--8-----

 Shit, fuck, satan, ....
 -------------------------------
 -------------------------------
 -8-8-8/10-10----8-8-8/10-10----
 -8-8-8/10-10----8-8-8/10-10----
 -6-6-6/8--8-----6-6-6/8--8-----
-------------------------------

 Right or wrong, it's our ...
 -------------------------------
 -------------------------------
 -------------------------------
 -8-8-8/10-10----8-8-8/10-10----
 -8-8-8/10-10----8-8-8/10-10----
 -6-6-6/8--8-----6-6-6/8--8-----

 America the beautiful...
 -------------------------------------
 -------------------------------------
 -10-10-10/12-12----12-12-12\10-10----
 -10-10-10/12-12----12-12-12\10-10----
 -8--8--8-/10-10----10-10-10\8--8-----
 -------------------------------------

 Don't change the words to ....
 -------------------------------|
 -------------------------------|
 -10-10-10----------------------|
 -10-10-10-10-10----8-8-8/10-10-|
 -8--8--8--10-10----8-8-8/10-10-|
 ----------8--8-----6-6-6/8--8--|


solo (Scott Ian):

|--------------------------------|
|-------13-15'-15'-15'`-13-15-13-|
|-12-14--------------------------|
|--------------------------------|
|--------------------------------|
|--------------------------------| repeat 4x

2nd verse, prechorus, verse, prechorus, chorus
(uses the same guitar parts):

"Well, I'm startin' up a ....

 You fuckin' whores....

 Now you might take offense...

 You fuckin' whores...

 Shit, fuck, satan, death, ...

interlude:

|----------------------------------------------------|
|----------------------------------------------------|
|----------------------------------------------------|
|----------------------------------------------------|
|------------------8-12----------------------------8-|
|-8888888888888888------8888888888888888-8-8-10-12---| repeat 2x
  ^
  I'm not too sure about how many times that note is played...
  (btw, that's the 8th fret... although, that's kinda obvious)

|-------------------------------------------------|
|-------------------------------------------------|
|-------------------------------------------------|
|---------------------2---------------------------|
|-------------------3-----------------------0-2-3-|
|-3333333333333333------333333333333333-3-3-------| repeat 2x

3rd verse, prechorus, verse, prechorus, chorus
(again, the same parts):

"So now I'm startin' up a ....

|-------------------------15-|
|-------------12-13-15/17----|
|-12-12----14----------------|
|----------------------------|
|----------------------------|
|----------------------------|

"And now, I don't do this to shock ...

 You fuckin' whores...

 You know you can't censor ....

 You fuckin' whores...

 Shit, fuck, satan, death, sex, drugs.....

play the first half of the interlude and repeat the last 1/4 of that
part 4 times... then end on an F...

Almost there ...

Sign in to get your own page with links to favourite songs and more. You are just one click away...

Login with Facebook Login with Google