Log in

One click and you are in

Login with Facebook Login with Google

Why sign up and log in

Guitar Tabs Explorer
Anthrax bass tabs for Madhouse

Bass tabs

Intro (Play after the first two riffs of the song)
G|---------------------------------------------------------------|
D|---------------------------------------------------------------|
A|---------------------------------------------------------------|
E|---0-0-0-0-0-0-0-0-0-0-0-0-0-0---------------------------------|
G|---------------------------------------------------------------|
D|-------------------------------------------------------------|
A|---------------------------------------------------------------|
E|---0-0-0-0-0-0-0-7-0-6-0-5-0-4-0-3-----------------------------| x3


Verse 1a "One comes to find me..."
G|---------------------------------------------------------------|
D|---------------------------------------------------------------|
A|---------------------------------------------------------------|
E|-----5--5-5-5--------------------------------------------------|


Verse 1b "Trapped in this nightmare..."
G|---------------------------------------------------------------|
D|---------------------------------------------------------------|
A|---------------------------------------------------------------|
E|---0-0-0-0-3-4-3-0-0-0-0-3-6-5-0-0-0-0-3-4-3-0-0-0-0-3-4-6-----|


Verse 1c "And I don't care..."
G|---------------------------------------------------------------|
D|---------------------------------------------------------------|
A|---------------------------------------------------------------|
E|--0-0-0-0-0-0-0-0-0-0-0-0--8-7-6-------------------------------|

Chorous "It's a Madhouse..."
G|---------------------------------------------------------------|
D|---------------------------------------------------------------|
A|---------------------------------------------------------------|
E|--7-06-05-04-000-7-06-05-04-0-0-0-0----------------------------|

Verse 2a "Five years behind me..."
G|---------------------------------------------------------------|
D|---------------------------------------------------------------|
A|---------------------------------------------------------------|
E|-----5--5-5-5--------------------------------------------------|


Verse 2b "Trapped in this nightmare..."
G|---------------------------------------------------------------|
D|---------------------------------------------------------------|
A|---------------------------------------------------------------|
E|---0-0-0-0-3-4-3-0-0-0-0-3-6-5-0-0-0-0-3-4-3-0-0-0-0-3-4-6-----|


Verse 2c "And I Don't care..."
G|---------------------------------------------------------------|
D|---------------------------------------------------------------|
A|---------------------------------------------------------------|
E|--0-0-0-0-0-0-0-0-0-0-0-0--8-7-6-------------------------------|

Chorous "'Cause it's a madhouse..."
G|---------------------------------------------------------------|
D|---------------------------------------------------------------|
A|---------------------------------------------------------------|
E|--7-06-05-04-000-7-06-05-04-0-0-0-0----------------------------|

Guitar Solo
G|---------------------------------------------------------------|
D|---------------------------------------------------------------|
A|---------------------------------------------------------------|
E|-----5--5-5-5--------------------------------------------------|

Chorous (end)
G|---------------------------------------------------------------|
D|---------------------------------------------------------------|
A|---------------------------------------------------------------|
E|--7-06-05-04-000-7-06-05-04-0-0-0-0----------------------------|
ⓘ Bass guitar tab for 'Madhouse' by Anthrax, a thrash metal band formed in 1981 from New York, USA

Almost there ...

Sign in to get your own page with links to favourite songs and more. You are just one click away...

Login with Facebook Login with Google