Log in

One click and you are in

Login with Facebook Login with Google

Why sign up and log in

Guitar Tabs Explorer
Anthrax tabs for Lone justice

Guitar tabs with lyrics

Anthrax "Lone Justice" from SPREADING THE DISEASE (1985)

Tabbed by Nick S. (Pantera9560@aol.com) If you E-mail use the subj. "Lone
Justice tab." I'm not saying what parts are palm-muted 'cause you can figure
that out when you listen to the song. Special thanks to my guitar teacher for
helping me out with this one.
Riff 1
A-2---------------2-----------------
E-0--0-3-0-3-0-0--0--0-3-0-2-3-5----


Riff 2
D-9-9-9-9-9-9-9-9-9-8-8-8-8-8-8-8-8-8-5-5-5-5-5-5-5-5-5-4-4-4-4-4-4-4-4-4--
A-7-7-7-7-7-7-7-7-7-6-6-6-6-6-6-6-6-6-3-3-3-3-3-3-3-3-3-2-2-2-2-2-2-2-2-2--
cont'd below

D-2-2-2-2-2-2-2-2-2--------------
A-0-0-0-0-0-0-0-0-0-5-5-4-4-2----
E-------------------3-3-2-2-0----


Riff 3
D-2-2-2-2-2-2--7-5-4-2----
A-0-0-0-0-0-0--5-3-2-0----


Riff 4
D-------2-----------5-----------2-----------------3---3-------
A-2-----0-----5-----3-----2-----0-----5-----0-2-3---3---3-----
E-0-----------3-----------0-----------3-----------------------


Riff 5
D-5-----7-----9-----10/9--7--4-----
A-3-----5-----7------8/7--5--2-----

Riff 5 ending--Play A chord diagramC5C5 let it ring & play A chord diagramD5D5 & let it ring.


Riff 6
G-----------------------------7------------------------------------
D-10/9--10/9--10/9------------5---10/9--10/9--10/9-----------------
A--8/7---8/7---8/7--7-7-7-7--------8/7---8/7---8/7--7-7-7-7---5----
E-------------------0-0-0-0-------------------------0-0-0-0---3----

Song order:


Riff 1 4x

Riff 2 once

Riff 3 8x

Riff 4 twice

Riff 3 8x

Riff 4 twice

Riff 5 3x & Riff 5 ending after 3rd time

Riff 6 twice

Riff 3 8x

Riff 4 twice

Riff 5 3x & Riff 5 ending after 3rd time

Riff 6 6x

Riff 5 7x & Riff 5 ending after 7th time

Riff 1 4x
then end with:
A-2---------------2---
E-0--0-3-0-3-0-0--0---

Joey Belladonna: Vocals
Frank Bello: Bass
Charlie Benante: Drums
Scott Ian: Rhythm guitar
Dan Spitz: Lead guitar

Almost there ...

Sign in to get your own page with links to favourite songs and more. You are just one click away...

Login with Facebook Login with Google