Log in

One click and you are in

Login with Facebook Login with Google

Why sign up and log in

Guitar Tabs Explorer
Annihilator bass tabs for Plasma zombies

Bass tabs

Album: Schizo Deluxe (2005)
Bassist: Jeff Waters

Tuning: D tuning

F|------------------------------------|----------------------------------|
C|------------------------------------|----------------------------------|
G|------------------------------------|----------------------------------|
D|-000000-0000000-0000000-00000-65430-|-000000-0000000-0000000-0-65430-6\|

F|------------------------------------|--------------------------------------|
C|------------------------------------|--------------------------------------|
G|------------------------------------|--------------------------------------|
D|-000000-0000000-0000000-00000-65430-|-000000-0000000-0000000-0-65430-65430-|
Verse 1

F|------------------------------------|--------------------------------------|
C|------------------------------------|--------------------------------------| x2
G|------------------------------------|--------------------------------------|
D|-000000-0000000-0000000-00000-65430-|-000000-0000000-0000000-0-65430-65430-|


Pre-chorus

F|-----------------|
C|-----------------| x4
G|-----------------|
D|-4-7-5-8-6-9-5-8-|

F|--------------------------|
C|--------------------------| x4
G|--------------------------|
D|-444777555888666999555888-|

Chorus

F|----------|----------|----------|-----------|
C|----------|----------|----------|-----------| x2
G|----------|----------|----------|-----------|
D|-111111-2-|-111111-2-|-111111-2-|-11/2-11/2-|

F|------------------------------------|----------------------------------|
C|------------------------------------|----------------------------------|
G|------------------------------------|----------------------------------|
D|-000000-0000000-0000000-00000-65430-|-000000-0000000-0000000-0-65430-6\|


Verse 2

F|------------------------------------|--------------------------------------|
C|------------------------------------|--------------------------------------| x2
G|------------------------------------|--------------------------------------|
D|-000000-0000000-0000000-00000-65430-|-000000-0000000-0000000-0-65430-65430-|


Pre-chorus

F|-----------------|
C|-----------------| x4
G|-----------------|
D|-4-7-5-8-6-9-5-8-|

F|--------------------------|
C|--------------------------| x4
G|--------------------------|
D|-444777555888666999555888-|


Chorus

F|----------|----------|----------|-----------|
C|----------|----------|----------|-----------| x4
G|----------|----------|----------|-----------|
D|-111111-2-|-111111-2-|-111111-2-|-11/2-11/2-|

Guitar solo

F|---------------------|---------------------|
C|---------------------|---------------------|
G|---------------------|---------------------|
D|-0-0-3-0-5-0-6-0-5-3-|-0-0-3-0-5-0-6-0-5-6-|
 |                           x2
F|---------------------|-----------------------------|
C|---------------------|-----------------------------|
G|---------------------|-----------------------------|
D|-0-0-3-0-5-0-6-0-5-3-|-5p3h5p3h5p0h3-5p3h5p3h5p0h6-|


Verse 3

F|---------------------|---------------------|
C|---------------------|---------------------|
G|---------------------|---------------------|
D|-0-0-3-0-5-0-6-0-5-3-|-0-0-3-0-5-0-6-0-5-6-|
 |                           x2
F|---------------------|-----------------------------|
C|---------------------|-----------------------------|
G|---------------------|-----------------------------|
D|-0-0-3-0-5-0-6-0-5-3-|-5p3h5p3h5p0h3-5p3h5p3h5p0h6-|

F|------------------------------------|----------------------------------|
C|------------------------------------|----------------------------------|
G|------------------------------------|----------------------------------|
D|-000000-0000000-0000000-00000-65430-|-000000-0000000-0000000-0-65430-6\|


Verse 4

F|------------------------------------|--------------------------------------|
C|------------------------------------|--------------------------------------| x2
G|------------------------------------|--------------------------------------|
D|-000000-0000000-0000000-00000-65430-|-000000-0000000-0000000-0-65430-65430-|


Pre-chorus

F|-----------------|
C|-----------------| x4
G|-----------------|
D|-4-7-5-8-6-9-5-8-|

F|--------------------------|
C|--------------------------| x4
G|--------------------------|
D|-444777555888666999555888-|


Chorus

F|----------|----------|----------|-----------|
C|----------|----------|----------|-----------| x4
G|----------|----------|----------|-----------|
D|-111111-2-|-111111-2-|-111111-2-|-11/2-11/2-|

🏷Legend
------
| / = slide up
| \ = slide down
| h = hammer-on

Almost there ...

Sign in to get your own page with links to favourite songs and more. You are just one click away...

Login with Facebook Login with Google