Log in

One click and you are in

Login with Facebook Login with Google

Why sign up and log in

Guitar Tabs Explorer
Annenmaykantereit bass tabs for Ich geh heut nicht mehr tanzen

Ich Geh Heut Nicht Mehr Tanzen bass tab by Annenmaykantereit

Annenmaykantereit bass tabs for Ich geh heut nicht mehr tanzen

Bass tabs

Chorus

G |----------------------8-|10-----------8----------|------------------------|------------------------|
D |------------10-----8----|------10--8-------10--9-|-8----10--8--------8----|----------8-10-----8----|
A |-8----10-11-------------|------------------------|------------11-------11-|10----11-------------11-|
E |------------------------|------------------------|------------------------|------------------------|
  1 & 2 & 3 & 4 &  1 & 2 & 3 & 4 &  1 & 2 & 3 & 4 &  1 & 2 & 3 & 4 &

G |----------------------8-|10-----------8----------|------------------------|------------------------|
D |------------10-----8----|------10--8-------10--9-|-8----10--8--------8----|------------------------|
A |-8----10-11-------------|------------------------|------------11-------11-|10\---------------------|
E |------------------------|------------------------|------------------------|------------------------|
  1 & 2 & 3 & 4 &  1 & 2 & 3 & 4 &  1 & 2 & 3 & 4 &  1 & 2 & 3 & 4 &

G |---------------6-|-8-------6-------|-----------------|-----------------|
D |---------8---6---|-----8-6-----8-7-|-6---8-6-----6---|-----------------|
A |-6---8-9---------|-----------------|---------9-----9-|-8\--------------|
E |-----------------|-----------------|-----------------|-----------------|
  1 & 2 & 3 & 4 &  1 & 2 & 3 & 4 &  1 & 2 & 3 & 4 &  1 & 2 & 3 & 4 &

G |-----------------|-----------------|-----------------|-----------------|
D |---------------1-|-3-------1-------|-----------------|-----------------|
A |---------3---1---|-----3-1-----3-2-|-1---3-1-----1---|-------1-3---1---|
E |-1---3-4---------|-----------------|---------4-----4-|-3---4---------4-|
  1 & 2 & 3 & 4 &  1 & 2 & 3 & 4 &  1 & 2 & 3 & 4 &  1 & 2 & 3 & 4 &

G |-----------------|-----------------|-----------------|-----------------|
D |---------------1-|-3-------1-------|-----------------|-----------------|
A |---------3---1---|-----3-1-----3-2-|-1---3-1-----1---|-------1-3---1---|
E |-1---3-4---------|-----------------|---------4-----4-|-3---4-----------|
  1 & 2 & 3 & 4 &  1 & 2 & 3 & 4 &  1 & 2 & 3 & 4 &  1 & 2 & 3 & 4 &


Bridge

G |-----------------|-----------------|-----------------|-----------------|
D |-----------------|-----------------|----11-----------|----11-----------|
A |----11-----------|----11-----------|13---------------|13---------------| x4
E |13---------------|13---------------|-----------------|-----------------|
  1 & 2 & 3 & 4 &  1 & 2 & 3 & 4 &  1 & 2 & 3 & 4 &  1 & 2 & 3 & 4 &

G |-----------------|-----------------|-----------------|------------15----13-15-|
D |-----------------|-----------------|----11-----------|------11-15-------------|
A |----11-----------|----11-----------|13---------------|13----------------------|
E |13---------------|13---------------|-----------------|------------------------|
  1 & 2 & 3 & 4 &  1 & 2 & 3 & 4 &  1 & 2 & 3 & 4 &  1 & 2 & 3 & 4 &

G |------------------------|------------------12-13-|------------15----13-12-|------------15----13-15-|
D |------------15----13----|------------15----------|------11-15-------------|------11-15-------------|
A |------11-15----------15-|------11-15-------------|13----------------------|13----------------------| x3
E |13----------------------|13----------------------|------------------------|------------------------|
  1 & 2 & 3 & 4 &  1 & 2 & 3 & 4 &  1 & 2 & 3 & 4 &  1 & 2 & 3 & 4 &

G |------------------------|------------------12-13-|------------15----13-12-|------------15----13-15-|/17-------|-
D |------------15----13----|------------15----------|------11-15-------------|------11-15-------------|----------|-
A |------11-15----------15-|------11-15-------------|13----------------------|13----------------------|----------|-
E |13----------------------|13----------------------|------------------------|------------------------|----------|-
  1 & 2 & 3 & 4 &  1 & 2 & 3 & 4 &  1 & 2 & 3 & 4 &  1 & 2 & 3 & 4 &  1&2&3&4& 1


Chorus

G |----------------------8-|10-----------8----------|------------------------|------------------------|
D |------------10-----8----|------10--8-------10--9-|-8----10--8--------8----|----------8-10-----8----|
A |-8----10-11-------------|------------------------|------------11-------11-|10----11-------------11-|
E |------------------------|------------------------|------------------------|------------------------|
  1 & 2 & 3 & 4 &  1 & 2 & 3 & 4 &  1 & 2 & 3 & 4 &  1 & 2 & 3 & 4 &

G |----------------------8-|10-----------8----------|------------------------|------------------------|
D |------------10-----8----|------10--8-------10--9-|-8----10--8--------8----|------------------------|
A |-8----10-11-------------|------------------------|------------11-------11-|10\---------------------|
E |------------------------|------------------------|------------------------|------------------------|
  1 & 2 & 3 & 4 &  1 & 2 & 3 & 4 &  1 & 2 & 3 & 4 &  1 & 2 & 3 & 4 &

G |-----------------|-----------------|-----------------|-----------------|
D |---------------1-|-3-------1-------|-----------------|-----------------|
A |---------3---1---|-----3-1-----3-2-|-1---3-1-----1---|-------1-3---1---| x2
E |-1---3-4---------|-----------------|---------4-----4-|-3---4---------4-|
  1 & 2 & 3 & 4 &  1 & 2 & 3 & 4 &  1 & 2 & 3 & 4 &  1 & 2 & 3 & 4 &


Bridge

G |-----------------|-----------------|-----------------|-----------------|
D |-----------------|-----------------|-----------------|-----------------|
A |-----------------|-----------------|-1~--------------|-----------------| x2
E |-1~--------------|-----------------|-----------------|-----------------|
  1 & 2 & 3 & 4 &  1 & 2 & 3 & 4 &  1 & 2 & 3 & 4 &  1 & 2 & 3 & 4 &

G |-----------------|-----------------|-----------------|-----------------|
D |-----------------|-----------------|-----------------|-----------------|
A |-----------------|---------3---3-3-|-1---1-1~--------|-1---1-1---------|
E |-1---1-1~--------|-1---1-1---------|-----------------|---------4---4-4-|
  1 & 2 & 3 & 4 &  1 & 2 & 3 & 4 &  1 & 2 & 3 & 4 &  1 & 2 & 3 & 4 &

G |-----------------|-----------------|-----------------|-----------------|
D |-----------------|-----------------|-----------------|-----------------|
A |-----------------|---------3---3-3-|-1---1-1~--------|-1---1-1-3~------|
E |-1---1-1~--------|-1---1-1---------|-----------------|-----------------|
  1 & 2 & 3 & 4 &  1 & 2 & 3 & 4 &  1 & 2 & 3 & 4 &  1 & 2 & 3 & 4 &

G |----------------------8-|10-----------8----------|------------------------|------------------------|
D |------------10-----8----|------10--8-------10--9-|-8----10--8--------8----|----------8-10-----8----|
A |-8----10-11-------------|------------------------|------------11-------11-|10----11-------------11-| x2
E |------------------------|------------------------|------------------------|------------------------|
  1 & 2 & 3 & 4 &  1 & 2 & 3 & 4 &  1 & 2 & 3 & 4 &  1 & 2 & 3 & 4 &

G |----------------------8-|10----------10----12-13-|------------------------|------------------------|
D |------------10-----8----|------10--8-------------|-8----10--8--------8----|----------8-10-----8----|
A |-8----10-11-------------|------------------------|------------11-------11-|10----11-------------11-| x2
E |------------------------|------------------------|------------------------|------------------------|
  1 & 2 & 3 & 4 &  1 & 2 & 3 & 4 &  1 & 2 & 3 & 4 &  1 & 2 & 3 & 4 &


Chorus

G |-----------------|-----------------|-----------------|-----------------|
D |---------------1-|-3-------1-------|-----------------|-----------------|
A |---------3---1---|-----3-1-----3-2-|-1---3-1-----1---|-------1-3---1---|
E |-1---3-4---------|-----------------|---------4-----4-|-3---4---------4-|
  1 & 2 & 3 & 4 &  1 & 2 & 3 & 4 &  1 & 2 & 3 & 4 &  1 & 2 & 3 & 4 &

G |-----------------|-----------------|-----------------|-----------------|
D |---------------1-|-3-------1-------|-----------------|-----------------|
A |---------3---1---|-----3-1-----3-2-|-1---3-1-----1---|-----------------|
E |-1---3-4---------|-----------------|---------4-----4-|-3---------------|
  1 & 2 & 3 & 4 &  1 & 2 & 3 & 4 &  1 & 2 & 3 & 4 &  1 & 2 & 3 & 4 &

Almost there ...

Sign in to get your own page with links to favourite songs and more. You are just one click away...

Login with Facebook Login with Google