Log in

One click and you are in

Login with Facebook Login with Google

Why sign up and log in

Guitar Tabs Explorer
The Animals bass tabs for Sky pilot

Bass tabs

-------------------------------------------------------------------------------
               Sky Pilot - The Animals
-------------------------------------------------------------------------------
Tabbed by: CorporalCrunch

Tuning: Standard
End of Verse 1: "...he's a good holy man"
G|10-10-10-10------8------8-10\5-|
D|------------8-10---8-10--------|
A|-------------------------------|
E|-------------------------------|


Chorus 1: "Sky....................Pilot"
G|------------------------------------|------------------------|
D|------------------------------------|------------------------|
A|--------------------------------6---|-----------------5-6--8-|
E|6---6-6-6---6-6-6---6-6-6---6-6---6-|-6---6-6-6---6-6--------|

"Sky..............................Pilot"
G|------------------------------------|---------|
D|------------------------------------|---------|
A|--------------------------------6---|---------|
E|6---6-6-6---6-6-6---6-6-6---6-6---6-|-6---6-6-|

 "How high can you fly" "You'll never..............reach the sky"
G|---------------------|--------------------------10-12-10-12-10-|-----------------------------|
D|---------------------|-----------------------------------------|-----------------------------|
A|---------------------|-----------------------------------------|-----------------------------|
E|8--5-8---5-6---6-6-6-|5-8-8-8-8-8-8-8-8-8-8-8-8----------------|-6---6-6-6---6-6---6-6-6-5-6-|

Verse 2: "He smiles at the young soldiers..."
G|----------------------------------------------------------------------|-----------------------------------|
D|----------------------------------------------------------------------|-----------------------------------|
A|-----------6----6---------------6----6---------------6----6-----------|-8-8-8-8-8-8-8-8-8-8-8-6-6-8-6-----|
E|8--5-8---6----6----5-8--5-8---6----6----5-8--5-8---6----6----5-8--5-8-|-------------------------------8-5-|


Chorus 2: "Sky....................Pilot"
G|------------------------------------|------------------------|
D|------------------------------------|------------------------|
A|--------------------------------6---|-----------------5-6--8-|
E|6---6-6-6---6-6-6---6-6-6---6-6---6-|-6---6-6-6---6-6--------|

"Sky..............................Pilot"
G|------------------------------------|-----------|
D|------------------------------------|-----------|
A|--------------------------------6---|-----------|
E|6---6-6-6---6-6-6---6-6-6---6-6---6-|-6-6---6-6-|

 "How high can you fly" "You'll never..............reach the sky"
G|---------------------|--------------------------10-12-10-12-10-|-----------------------------|
D|---------------------|-----------------------------------------|-----------------------------|
A|---------------------|-----------------------------------------|-----------------------------|
E|8--5-8---5-6---6-6-6-|5-8-8-8-8-8-8-8-8-8-8-8-8----------------|-6---6-6-6-6--6-6---6-6-6-6--|


Verse 3: "He mumbles a Prayer..."
G|----------------------------------------------------------------------|-------------------------------------|
D|----------------------------------------------------------------------|-------------------------------------|
A|-----------6----6---------------6----6---------------6----6-----------|-8-8-8-8-8-8-8-8-8-8-8-8-6-6-5-5-3-3-|
E|8--5-8---6----6----5-8--5-8---6----6----5-8--5-8---6----6----5-8--5-8-|-------------------------------------|

"As the young men move out......"
G|----------------------------------------------------------------------|-------------------------------------|
D|----------------------------------------------------------------------|-------------------------------------|
A|-----------6----6---------------6----6---------------6----6-----------|-8-8-8-8-8-8-8-8-8-8-8-8-6-6-5-5-3-3-|
E|8--5-8---6----6----5-8--5-8---6----6----5-8--5-8---6----6----5-8--5-8-|-------------------------------------|


Chorus 3: "Sky....................Pilot"
G|------------------------------------|--------------------------|
D|------------------------------------|--------------------------|
A|--------------------------------6---|-------------------5-6--8-|
E|6---6-6-6---6-6-6---6-6-6---6-6---6-|-6-6---6-6-6---6-6--------|

"Sky..............................Pilot"
G|------------------------------------|-----------|
D|------------------------------------|-----------|
A|--------------------------------6---|-----------|
E|6---6-6-6---6-6-6---6-6-6---6-6---6-|-6-6---6-6-|

 "How high can you fly" "You'll never..............reach the sky"
G|---------------------|--------------------------10-12-10-12-10-|-----------------------------|
D|---------------------|-----------------------------------------|-----------------------------|
A|---------------------|-----------------------------------------|-----------------------------|
E|8--5-8---5-6---6-6-6-|5-8-8-8-8-8-8-8-8-8-8-8-8----------------|-6---6-6-6-6--6-6---6-6-6-6--|


Guitar Solo:          (x24)             (x30)
G|--------------------------------------------------------|--------------|
D|--------------------------------------------------------|--------------|
A|--------------------------------------------------------|-------5-6--8-|
E|6-6-6-6-6-6-6-6-6-6-6-6-6-6-6-6-6-6-6-6-6-6-6-6-6-6-6-6-|6--6-6--------|


Interlude:
G|----------------------------------------------|
D|----------------------------------------------|
A|--6-----6-----6-----6-----6-----6-----6-----6-|
E|6-----6-----6-----6-----6-----6-----6-----6---|


Verse 4: "You're soldiers of God...."
G|------------------------------------------------------------------------|----------------------------------|
D|------------------------------------------------------------------------|----------------------------------|
A|-------------6----6---------------6----6---------------6----6-----------|8-8-8-8-8-8-8-8-8-8-8-8-8-8-8-----|
E|5-8--5-8---6----6----5-8--5-8---6----6----5-8--5-8---6----6----5-8--5-8-|-----------------------------5-6-7|

"May God give you strength.."
G|----------------------------------------------------------------------|10-10-10-10------8------8-10\5-|
D|----------------------------------------------------------------------|------------8-10---8-10--------|
A|-----------6----6---------------6----6---------------6----6-----------|-------------------------------|
E|8--5-8---6----6----5-8--5-8---6----6----5-8--5-8---6----6----5-8--5-8-|-------------------------------|


Chorus 4: "Sky...................Pilot"
G|------------------------------------|------------------------|
D|------------------------------------|------------------------|
A|--------------------------------6---|-----------------5-6--8-|
E|6---6-6-6---6-6-6---6-6-6---6-6---6-|-6-6--6-6-6--6-6--------|

"Sky.............................Pilot"
G|------------------------------------|-----------|
D|------------------------------------|-----------|
A|--------------------------------6---|-----------|
E|6---6-6-6---6-6-6---6-6-6---6-6---6-|-6-6-6---6-|

 "How high can you fly" "You'll never...."
G|---------------------|----------11/12-11/12-11/12-11/12-|---------------------------|
D|---------------------|----------------------------------|---------------------------|
A|---------------------|----------------------------------|------------8-8-----5-6--8-|
E|8--5-8---5-6---6-6-6-|5-8-8-8-8-------------------------|-6---6-6-6------6-6--------|


Chorus 5: "Sky...................Pilot"
G|------------------------------------|---------------------------|
D|------------------------------------|---------------------------|
A|--------------------------------6---|--------------------5-6--8-|
E|6---6-6-6---6-6-6---6-6-6---6-6---6-|-6-6---6-6-6---6-6---------|

"Sky.............................Pilot"
G|------------------------------------|-----------|
D|------------------------------------|-----------|
A|--------------------------------6---|-----------|
E|6---6-6-6---6-6-6---6-6-6---6-6---6-|-6-6-6---6-|

 "How high can you fly" "You'll never..."
G|---------------------|------------------11/12-12-11/12-12-------9-12-|-----------------------------|
D|---------------------|------------------------------------10-10------|-----------------------------|
A|---------------------|-----------------------------------------------|-----------------------------|
E|8--5-8---5-6---6-6-6-|5-8-8-8-8-8-8-8-8------------------------------|-6---6-6-6-6---6-6---6-6-6-6-|

"You'll Never...."
G|---------------------------------|---------------------------|
D|---------------------------------|---------------------------|
A|----------------6----6-6-6-6-----|------------8-8-----5-6--8-|
E|5-8---8-8-8---8----8---------8-6-|-6---6-6-6------6-6--------|

"You'll never...."
G|-------------------------------|-------------------|
D|-------------------------------|-------------------|
A|----------------6--6-9/10-10---|-------------------|
E|5-8---8-8-8---8--------------6-|-6-6---6-6---6-6-6-|

"You'll never...."
G|-------------------------------|--------------------|
D|-------------------------------|--------------------|
A|----------------6--6-9/10-10---|-------------5-6--8-|
E|5-8---8-8-8---8--------------6-|-6-6---6-6----------|

"You'll never...." (Fade)
G|------------11/12-11/12-11/12-11/12-|----------------------|
D|------------------------------------|----------------------|
A|------------------------------------|---5-6--8----5-6--8---|
E|5-8---8-8---------------------------|-6---------6--------6-|


| / slide up
| \ slide down

Almost there ...

Sign in to get your own page with links to favourite songs and more. You are just one click away...

Login with Facebook Login with Google