Log in

One click and you are in

Login with Facebook Login with Google

Why sign up and log in

Guitar Tabs Explorer
The Animals bass tabs for Im crying

Bass tabs

I m Crying
Single release by The Animals In 1964 reached number 8 in the UK.


Intro:                       (Play This Bit x2)
G|-------------------------------------------------------------------
D|--------------------------------------------6-6-8-6--------6-6-8-6-
A|-8-8-8-8-8-8-8-8---6-6-6-6-6-6-6-6---8-8-8-8--------8-8-8-8--------
E|-------------------------------------------------------------------
Verse:
G|-------------------------------------------------------------
D|--------6-6-8-6--------6-6-8-6--------6-6-8-6--------6-6-8-6-
A|-8-8-8-8--------8-8-8-8--------8-8-8-8--------8-8-8-8--------
E|-------------------------------------------------------------

G|--------6-6-8-6--------6-6-8-6-------------------------------
D|-8-8-8-8--------8-8-8-8---------------6-6-8-6--------6-6-8-6-
A|-------------------------------8-8-8-8--------8-8-8-8--------
E|-------------------------------------------------------------


Chorus:
G|------------8-8-10-8--------6-6-8-6-------------------------------
D|-10-10-10-10---------8-8-8-8---------------6-6-8-6--------6-6-8-6-
A|------------------------------------8-8-8-8--------8-8-8-8--------
E|------------------------------------------------------------------

Repeat Intro (x2)

Repeat Verse & Chorus:


Solo:
G|-------------------------------------------------------------------
D|--------------------------------------------6-6-8-6--------6-6-8-6-
A|-8-8-8-8-8-8-8-8---6-6-6-6-6-6-6-6---8-8-8-8--------8-8-8-8--------
E|-------------------------------------------------------------------

                            (Play This Bit x3)
G|-----------------------------------------------------------------------
D|-----------------------------------------------------------------------
A|-8-8-8-8-8-8-8-8---6-6-6-6-6-6-6-6---8-8-8-8-8-8-8-8---8-8-8-8-8-8-8-8-
E|-----------------------------------------------------------------------

Repeat Verse & Chorus:


Outro:
G|-------------------------------------------------------------------
D|--------------------------------------------6-6-8-6--------6-6-8-6-
A|-8-8-8-8-8-8-8-8---6-6-6-6-6-6-6-6---8-8-8-8--------8-8-8-8--------
E|-------------------------------------------------------------------

G|-------------------------------------------------------------------
D|--------------------------------------------6-6-8-6--------6-6-8-6-
A|-8-8-8-8-8-8-8-8---6-6-6-6-6-6-6-6---8-8-8-8--------8-8-8-8--------
E|-------------------------------------------------------------------

G|------------------
D|--------6-6-8-6---
A|-8-8-8-8--------8-
E|------------------

Almost there ...

Sign in to get your own page with links to favourite songs and more. You are just one click away...

Login with Facebook Login with Google