Log in

One click and you are in

Login with Facebook Login with Google

Why sign up and log in

Guitar Tabs Explorer
The Animals tabs for House of the rising sun

Guitar tabs

e------------0------------------------------------
h----------1-----1--------------------------------
G--------2-----------2----------------------------
D------2------------------------------------------
A----0--------------------------------------------
E-------------------------------------------------

e-----------0-------------------------------------
h---------1-----1---------------------------------
G-------0-----------0-----------------------------
D-----2-------------------------------------------
A----3--------------------------------------------
E-------------------------------------------------

e-----------2-------------------------------------
h----------3-----3--------------------------------
G--------2-----------2----------------------------
D----0-0------------------------------------------
A-------------------------------------------------
E-------------------------------------------------

e-----------1-------------------------------------
h----------1----1---------------------------------
G--------2--------2---2---------------------------
D----3-3------------------------------------------
A-------------------------------------------------
E-------------------------------------------------


e------------0------------------------------------
h----------1-----1--------------------------------
G--------2-----------2----------------------------
D------2------------------------------------------
A----0--------------------------------------------
E-------------------------------------------------

e------------0------------------------------------
h----------1-----1--------------------------------
G--------0-----------0----------------------------
D------2------------------------------------------
A----3--------------------------------------------
E-------------------------------------------------

e------------0------------------------------------
h----------0-----0--------------------------------
G--------1-----------1----------------------------
D------0------------------------------------------
A-------------------------------------------------
E----0--------------------------------------------

e------------0------------------------------------
h----------0-----0--------------------------------
G--------1-----------1----------------------------
D------0------------------------------------------
A-------------------------------------------------
E----0--------------------------------------------


e------------0------------------------------------
h----------1-----1--------------------------------
G--------2-----------2----------------------------
D------2------------------------------------------
A----0--------------------------------------------
E-------------------------------------------------

e------------0------------------------------------
h----------1-----1--------------------------------
G--------0-----------0----------------------------
D------2------------------------------------------
A----3--------------------------------------------
E-------------------------------------------------

e------------2------------------------------------
h----------3-----3--------------------------------
G--------2-----------2----------------------------
D----0-0------------------------------------------
A-------------------------------------------------
E-------------------------------------------------

e------------1------------------------------------
h----------1-----1--------------------------------
G--------2-----------2----------------------------
D----3-3------------------------------------------
A-------------------------------------------------
E-------------------------------------------------


e------------0------------------------------------
h----------1-----1--------------------------------
G--------2-----------2----------------------------
D------2------------------------------------------
A----0--------------------------------------------
E-------------------------------------------------

e------------0------------------------------------
h----------0-----0--------------------------------
G--------1-----------1----------------------------
D------0------------------------------------------
A-------------------------------------------------
E----0--------------------------------------------

e------------0------------------------------------
h----------1-----1--------------------------------
G--------2-----------2----------------------------
D------2------------------------------------------
A----0--------------------------------------------
E-------------------------------------------------

Repeat this throughout the whole song and your done.

Other versions of House Of The Rising Sun

House of the rising sunChords
House of the rising sun (Ver. 2)Chords
House of the rising sun (Ver. 3)Chords
House of the rising sun (Ver. 4)Chords
House of the rising sun acousticChords
House of the rising sun (Ver. 2)Tabs
House of the rising sun (Ver. 3) - introTabs

Almost there ...

Sign in to get your own page with links to favourite songs and more. You are just one click away...

Login with Facebook Login with Google