Log in

One click and you are in

Login with Facebook Login with Google

Why sign up and log in

Guitar Tabs Explorer
The Animals bass tabs for Good times

Bass tabs

Tuning: Standard (E A D G)

Difficulty: Novice
Tuning: EADG

0:14

G|----------------------------------------------------------------|
D|5---5---------------------------5---5---5-----------------------|
A|----------------------------------------------------------------|
E|----------------------------------------------------------------|

G|------------------------|
D|------------------------|
A|------------------------|
E|------------------------|

G|----------------------------------------------------------------|
D|----------------------------------------------------------------|
A|3-----------3---3-----------3---5-----------5---5-----------5---|
E|----------------------------------------------------------------|

G|----------------------------------------------------------------|
D|5-----------5---5-------------3-5---------------5---4---3-------|
A|----------------------------5-------------------------------5---|
E|----------------------------------------------------------------|

G|----------------------------------------------------------------|
D|----------------------------------------------------------------|
A|3-----------3---3-----------3---5-----------5---5-----------5---|
E|----------------------------------------------------------------|

G|----------------------------------------------------------------|
D|5-----------5---5-------------3-5---------------5---4-------3---|
A|----------------------------5-----------------------------------|
E|----------------------------------------------------------------|


0:45

G|----|
D|----|
A|0---|
E|----|

G|----------------------------------------------------------------|
D|2---2-----------2-----------------------------------------------|
A|------------2---------------2---5---5-------0---5---5-------0---|
E|----------------------------------------------------------------|

G|----------------------------------------------------------------|
D|2---2-----------2-----------------------------------------------| x3
A|------------2---------------2---5---5-------0---5---5-------0---|
E|----------------------------------------------------------------|

G|----------------------------------------------------------------|
D|2-------2-----------------------2-------2-----------------------|
A|--------------------5---2---5-----------------------------------|
E|----------------------------------------------------------------|

G|----------------------------------------------------------------|
D|2-------2-------------------------------------------------------|
A|----------------------------------------------------------------|
E|----------------------------------------------------------------|

1:10

G|----------------------------------------------------------------|
D|----------------------------------------------------------------|
A|3-----------3---3-----------3---5-----------5---5-----------5---|
E|----------------------------------------------------------------|

G|----------------------------------------------------------------|
D|5-----------5---5-------------3-5---------------5---4---3-------|
A|----------------------------5---------------5---------------5---|
E|----------------------------------------------------------------|

G|----------------------------------------------------------------|
D|----------------------------------------------------------------|
A|3-----------3---3-----------3---5-----------5---5-----------5---|
E|----------------------------------------------------------------|

G|----------------------------------------------------------------|
D|5-----------5---5-------------5-5---------------5---4-------3---|
A|----------------------------5-----------------------------------|
E|----------------------------------------------------------------|


1:35

G|----|
D|----|
A|0---|
E|----|

G|----------------------------------------------------------------|
D|2---2-----------2---2-------------------------------------------|
A|------------2---------------2---5---5-------0---5---5-------0---|
E|----------------------------------------------------------------|

G|----------------------------------------------------------------|
D|2---2-----------2---2-------------------------------------------|
A|------------2---------------2---5---5-------0---5---5---5---0---|
E|----------------------------------------------------------------|

G|----------------------------------------------------------------|
D|2---2-----------2---2-------------------------------------------| x2
A|------------2---------------2---5---5-------0---5---5-------0---|
E|----------------------------------------------------------------|

G|------------|
D|2-------2---|
A|------------|
E|------------|


2:20

G|----------------------------------------------------------------|
D|2---2-----------2-----------------------------------------------|
A|------------2---------------2---5---5-------0---5---5-------0---|
E|----------------------------------------------------------------|

G|----------------------------------------------------------------|
D|2---2-----------2---2-------------------------------------------|
A|------------2---------------2---5---5-------0---5---5-------0---|
E|----------------------------------------------------------------|

G|----------------------------------------------------------------|
D|----------------------------------------------------------------|
A|----------------------------------------------------------------|
E|----------------------------------------------------------------|

G|----------------------------------------------------------------|
D|----------------------------------------------------------------|
A|------------------------------------------------------------0---|
E|----------------------------------------------------------------|

G|----------------------------------------------------------------|
D|2-------2-----------------------2-------2-----------------------|
A|--------------------5---2---5-----------------------------------|
E|----------------------------------------------------------------|

2:41

G|----------------------------------------------------------------|
D|2---------------2-----------2-------2-------2-------2-------4---|
A|----------------------------------------------------------------|
E|----------------------------------------------------------------|

G|----------------------------------------------------------------|
D|5-------5---------------5---5-----------5---5-------5-------3---|
A|--------------------5---------------5---------------------------|
E|----------------------------------------------------------------|

G|----------------------------------------------------------------|
D|2---------------2-------2-------2-------2-------2-------2---4---|
A|----------------------------------------------------------------|
E|----------------------------------------------------------------|

G|----------------------------------------------------------------------------|
D|5-------5-------5-------5---5-----------5---5---5---5---4---3---2-------2---| fades out here.
A|--------------------5---------------5---------------------------------------|
E|----------------------------------------------------------------------------|

Almost there ...

Sign in to get your own page with links to favourite songs and more. You are just one click away...

Login with Facebook Login with Google