Log in

One click and you are in

Login with Facebook Login with Google

Why sign up and log in

Guitar Tabs Explorer
The Animals bass tabs for Dont wanna be missunderstood

Don't Wanna Be Missunderstood bass tab by The Animals

The Animals bass tabs for Dont wanna be missunderstood

Bass tabs

Animals - Don't wanna be missunderstood.btab

TablEdited by Jan Bjorklund  <jani_bjorklund@yahoo.se>

G ------|-4-4---|------|-4-4-|---|-4-4-4-4-4-|-2-2-2-2-2-|-0-0-0-0-0-|
D ------|-----2-|------|-----|-2-|-----------|-----------|-----------|
A ------|-------|------|-----|---|-----------|-----------|-----------|
E ------|-------|------|-----|---|-----------|-----------|-----------|

G -----------|-4-4-4-4-4-|-2-2-2-2-2-|-0-0-0-0-0-|-----|-----------|--
D -4-4-4-4-4-|-----------|-----------|-----------|-4-4-|-0-0---0---|--
A -----------|-----------|-----------|-----------|-----|-----0---0-|-2
E -----------|-----------|-----------|-----------|-----|-----------|--

G ----------|-----|------|-4-4---|------|-4-4-|---|-4-4-4-4-4-|-2-2-2-
D ----------|-----|------|-----2-|------|-----|-2-|-----------|-------
A -2---1----|-----|------|-------|------|-----|---|-----------|-------
E ---2--7-2-|-3-3-|------|-------|------|-----|---|-----------|-------

G 2-2-|-0-0-0-0-0-|-----------|-4-4-4-4-4-|-2-2-2-2-2-|-0-0-0-0-0-|---
D ----|-----------|-4-4-4-4-4-|-----------|-----------|-----------|-4-
A ----|-----------|-----------|-----------|-----------|-----------|---
E ----|-----------|-----------|-----------|-----------|-----------|---

G --|-----------|-----------|-----|------|-4-4-2-|-0-2-|-0-2-0-|-2-|--
D 4-|-0-0---0---|-----------|-----|------|-------|-----|-------|---|-0
A --|-----0---0-|-2-2---2-0-|-----|------|-------|-----|-------|---|--
E --|-----------|-----2-----|-3-3-|------|-------|-----|-------|---|--

G ---|-0-2-|-0-2-|-0---|------|-4-4-4-4-4-|-2-2-2-2-2-|-0-0-0-0-0-|---
D -4-|-----|-----|---4-|------|-----------|-----------|-----------|-4-
A ---|-----|-----|-----|------|-----------|-----------|-----------|---
E ---|-----|-----|-----|------|-----------|-----------|-----------|---

G --------|-4-4-4-4-4-|-2-2-2-2-2-|-0-0-0-0-0-|-----------|-----------
D 4-4-4-4-|-----------|-----------|-----------|-4-4-4-4-4-|-0-0---0---
A --------|-----------|-----------|-----------|-----------|-----0---0-
E --------|-----------|-----------|-----------|-----------|-----------

G |-----------|-----|------|-4-4-|---|-----------|-----------|-----|--
D |-----------|-----|------|-----|-2-|-0-0---0---|-----------|-----|--
A |-2-2---2-0-|-----|------|-----|---|-----0---0-|-2-2---2-0-|-----|--
E |-----2-----|-3-3-|------|-----|---|-----------|-----2-----|-3-3-|--

G ----|-4-4-|---|-----------|-----------|-----|------|-4-4---|
D ----|-----|-2-|-0-0---0---|-----------|-----|------|-----2-|
A ----|-----|---|-----0---0-|-2-2---2---|-----|------|-------|
E ----|-----|---|-----------|-----2---2-|-3-3-|------|-------|


............................................................

Almost there ...

Sign in to get your own page with links to favourite songs and more. You are just one click away...

Login with Facebook Login with Google