Log in

One click and you are in

Login with Facebook Login with Google

Why sign up and log in

Guitar Tabs Explorer
The Animals bass tabs for Dimples

Bass tabs

Dimples.btab
Animals
TablEdited by Poppamies

Tuning : E A D G 	Time Signature: 4/4

 tempo 142    |    |    |    |    |    |
|--------------------------------|--------------------------------|
|--------------------------------|3-------------------------------|
|--------------------------------|--------0-------1-------2-------|
|--------------------------------|--------------------------------|

 |    |    |    |    |    |    |    |
|--------------------------------|--------------------------------|
|--------0-------1-------2-------|3-------1-------0---------------|
|3-------------------------------|------------------------3-----3-|
|--------------------------------|--------------------------------|

 |    |    |    |    |    |    |    |
|--------------------------------|--------------------------------|
|------------------------1-------|--------0-------1-------2-------|
|3-------1-------0-------------1-|1-------------------------------|
|----------------------1---------|--------------------------------|

 |    |    |    |    |    |    |    |
|--------0-------1-------2-------|--------------------------------|
|3-------------------------------|3-------1-------0---------------|
|--------------------------------|------------------------3-------|
|--------------------------------|--------------------------------|

 |    |    |    |    |    |    |    |
|--------------------------------|--------------------------------|
|------------------------1-------|--------2-------3-------4-------|
|3-------1-------0---------------|3-------------------------------|
|----------------------1---------|--------------------------------|

 |    |    |    |    |    |    |    |
|0-------2-------3-----4-3-----3-|--------------------------------|
|--------------------------------|3-------1-------0---------------|
|--------------------------------|------------------------3-------|
|--------------------------------|--------------------------------|

 |    |    |    |    |    |    |    |
|--------------------------------|--------------------------------|
|------------------------1-------|3-------------------------------|
|3-------1-------0-----0---------|--------0-------1-------2-------|
|--------------------------------|--------------------------------|

 |    |    |    |    |    |    |    |
|--------------------------------|--------0-------1-------3-------|
|--------0-------1-------2-------|3-------------------------------|
|3-------------------------------|--------------------------------|
|--------------------------------|--------------------------------|

 |    |    |    |    |    |    |    |
|5-------3-------1---------------|3-------3-------1-------0-------|
|----------------------3-1-------|--------------------------------|
|--------------------------------|--------------------------------|
|--------------------------------|--------------------------------|

 |    |    |    |    |    |    |    |
|--------------------------------|--------------------------------|
|3-------1-------0-----0---------|3-------1-------0---------------|
|------------------------1-------|------------------------3-------|
|--------------------------------|--------------------------------|

 |    |    |    |    |    |    |    |
|----------------2---------------|--------------------------------|
|--------0-------------3-1-------|--------2-----2-3-------4-------|
|3-------------------------------|3-------------------------------|
|--------------------------------|--------------------------------|

 |    |    |    |    |    |    |    |
|0-------2-----2-3/--4---3-----2-|--------------------------------|
|--------------------------------|3-------1-------0---------------|
|--------------------------------|------------------------3-------|
|--------------------------------|--------------------------------|

 |    |    |    |    |    |    |    |
|--------------------------------|--------------------------------|
|------------------------3-1-0---|--------------------------------|
|3-------1-------0---------------|--------0-------1-------2-------|
|--------------------------------|1-------------------------------|

 |    |    |    |
|--------------------------------|
|--------0-------1-------2-------|
|3-------------------------------|
|--------------------------------|


http://www.geocities.com/jani_bjorklund/janis.html

Almost there ...

Sign in to get your own page with links to favourite songs and more. You are just one click away...

Login with Facebook Login with Google