Log in

One click and you are in

Login with Facebook Login with Google

Why sign up and log in

Guitar Tabs Explorer
The Animals bass tabs for Club a go-go

Bass tabs with lyrics

Club A Go-Go
The Animals
Written by Eric Burdon and Alan Price; released as a B-side to "Don't Let Me
Be Misunderstood" and on the album "Animal Tracks" (only in the USA)
Intro:
G|------ ------ ------ ------|------ ------ ------ ------|
D|5------5------5------5-----|5------5------5------5-----|
A|---------------------------|---------------------------|
E|---------------------------|---------------------------|


G|------ ------ ------ ------|------ ------ ------ ------|
D|5------5------5------5-----|5------5------5------5-----|
A|---------------------------|---------------------------|
E|---------------------------|---------------------------|


Verse:
G|------ ------ ------ ------|------ ------ ------ ------|
D|5------5------5------5-----|5------5------5------5-----|
A|---------------------------|---------------------------|
E|---------------------------|---------------------------|
   My baby found    a new place to go,


G|------ ------ ------ ------|------ ------ ------ ------|
D|5------5------5------5-----|5------5------5------5-----|
A|---------------------------|---------------------------|
E|---------------------------|---------------------------|
   hangs around  at the Club a Go- Go,
        town

G|------ ------ ------ ------|------ ------ ------ ------|
D|5------5------5------5-----|5------5------5------5-----|
A|---------------------------|---------------------------|
E|---------------------------|---------------------------|
   Takes my money for the picture show,      but
      all

G|------ ------ ------ ------|------ ------ ------ ------|
D|5--------------------------|---------------------------|
A|---------------------------|------------------17\------|
E|---------------------------|---------------------------|
 I  know she spends it at  Club a Go- Go.  Let's go,

G|------ ------ ------ ------|------ 3----- 4----- 5p3---|
D|-------2------3------4-----|5------------------------5-|
A|3--------------------------|---------------------------|
E|---------------------------|---------------------------|
 ba- by,                    now let's


G|------ ------ ------ ------|------ ------ ------ ------|
D|5---5--3------2------------|------------------5--------|
A|---------------------5-----|5------3------2------5-----|
E|---------------------------|---------------------------|
 go!                      Ah, I


G|7----- ------ ------ ------|------ 4----- 5----- 6-----|
D|-------4------5------6-----|7--------------------------|
A|---------------------------|---------------------------|
E|---------------------------|---------------------------|
 love you, come on!            Yeah!


G|------ ------ ------ ------|------ ------ ------ ------|
D|5--------------------------|---------------------------|
A|-------8------7------6-----|5---3--4---5---------5-----|
E|---------------------------|---------------------------|


Verse:
G|------ ------ ------ ------|------ ------ ------ ------|
D|5------5------5------5-----|5------5------5------5-----|
A|---------------------------|---------------------------|
E|---------------------------|---------------------------|
   It's one of coolest     spots in town,


G|------ ------ ------ ------|------ ------ ------ ------|
D|5------5------5------5-----|5------5------5------5-----|
A|---------------------------|---------------------------|
E|---------------------------|---------------------------|
   you take too much, it's bound to get you down,
          though

G|------ ------ ------ ------|------ ------ ------ ------|
D|5------5------5------5-----|5------5------5------5-----|
A|---------------------------|---------------------------|
E|---------------------------|---------------------------|
   She's got boyfriend call Big Joe,
       a     they

G|------ ------ ------ ------|------ ------ ------ ------|
D|5--------------------------|---------------------------|
A|---------------------------|------------------17\------|
E|---------------------------|---------------------------|
   he's a big shot at the Club a Go- Go.      Ba-


G|------ ------ ------ ------|------ 3----- 4----- 5p3---|
D|-------2------3------4-----|5------------------------5-|
A|3--------------------------|---------------------------|
E|---------------------------|---------------------------|
   by,                     come on,


G|------ ------ ------ ------|------ ------ ------ ------|
D|5------3------2------------|---------------------5p3---|
A|---------------------5-----|5------3------2----------5-|
E|---------------------------|---------------------------|
 let's go!                   Let's go,


G|------ ------ ------ ------|------ 4----- 5----- 6-----|
D|-------4------5------6-----|7--------------------------|
A|5--------------------------|---------------------------|
E|---------------------------|---------------------------|
 baby!               Yeah!


G|------ ------ ------ ------|------ ------ ------ ------|
D|5--------------------------|---------------------------|
A|-------8------7------6-----|5---3--4---5---------5-----|
E|---------------------------|---------------------------|


Verse:
G|------ ------ ------ ------|------ ------ ------ ------|
D|5------5------5------5-----|5------5------5------5-----|
A|---------------------------|---------------------------|
E|---------------------------|---------------------------|
 Now  play  blues every day and every night,
   they  the  there

G|------ ------ ------ ------|------ ------ ------ ------|
D|5------5------5------5-----|5------5------5------5-----|
A|---------------------------|---------------------------|
E|---------------------------|---------------------------|
   everybody, monkeys, they feel all right
            and

G|------ ------ ------ ------|------ ------ ------ ------|
D|5------5------5------5-----|5------5------5------5-----|
A|---------------------------|---------------------------|
E|---------------------------|---------------------------|
   Ask my  friend, Meyer, he'll tell you so,


G|------ ------ ------ ------|------ ------ ------ ------|
D|5--------------------------|---------------------------|
A|---------------------------|---------------------17\---|
E|---------------------------|---------------------------|
 that  ain't place like the Club a Go-Go.    Let's
   there no

G|------ ------ ------ ------|------ 3----- 4----- 5p3---|
D|-------2------3------4-----|5------------------------5-|
A|3--------------------------|---------------------------|
E|---------------------------|---------------------------|
 go, ba - by,              aah,


G|------ ------ ------ ------|------ ------ ------ ------|
D|5------3------2------------|---------------------5p3---|
A|---------------------5-----|5------3------2----------5-|
E|---------------------------|---------------------------|
               let's go,        Come


G|------ ------ ------ ------|------ 4----- 5----- 6-----|
D|-------4------5------6-----|7--------------------------|
A|5--------------------------|---------------------------|
E|---------------------------|---------------------------|
 on!               It's   all right, all
                   all right,

G|------ ------ ------ ------|------ ------ ------ ------|
D|5--------------------------|---------------------------|
A|-------8------7------6-----|5---3--4---5---------5-----|
E|---------------------------|---------------------------|
 right.      Yeah!


Verse (solo):
G|------ ------ ------ ------|------ ------ ------ ------|
D|5------5------5------5-----|5------5------5------5-----|
A|---------------------------|---------------------------|
E|---------------------------|---------------------------|


G|------ ------ ------ ------|------ ------ ------ ------|
D|5------5------5------5-----|5------5------5------5-----|
A|---------------------------|---------------------------|
E|---------------------------|---------------------------|


G|------ ------ ------ ------|------ ------ ------ ------|
D|5------5------5------5-----|5------5------5------5-----|
A|---------------------------|---------------------------|
E|---------------------------|---------------------------|


G|------ ------ ------ ------|------ ------ ------ ------|
D|5--------------------------|---------------------------|
A|---------------------------|------------------17\------|
E|---------------------------|---------------------------|


G|------ ------ ------ ------|------ 3----- 4----- 5p3---|
D|-------2------3------4-----|5------------------------5-|
A|3--------------------------|---------------------------|
E|---------------------------|---------------------------|


G|------ ------ ------ ------|------ ------ ------ ------|
D|5------3------2------------|---------------------5p3---|
A|---------------------5---5-|5------3------2----------5-|
E|---------------------------|---------------------------|


G|------ ------ ------ ------|------ 4----- 5----- 7p5---|
D|-------4------5------6-----|7------------------------7-|
A|5--------------------------|---------------------------|
E|---------------------------|---------------------------|


G|------ ------ ------ ------|------ ------ ------ ------|
D|5--------------------------|---------------------------|
A|-------8------7------6-----|5---3--4---5---------5-----|
E|---------------------------|---------------------------|


Outro:
G|------ ------ ------ ------|------ ------ ------ ------|
D|5------5------5------5-----|5------5------5------5-----|
A|---------------------------|---------------------------|
E|---------------------------|---------------------------|
 I guess I can't blame for going up there, though,


G|------ ------ ------ ------|------ ------ ------ ------|
D|5------5------5------5-----|5------5------5------5-----|
A|---------------------------|---------------------------|
E|---------------------------|---------------------------|
   the place is full of soul,


G|------ ------ ------ ------|------ ------ ------ ------|
D|5------5------5------5-----|5------5------5------5-----|
A|---------------------------|---------------------------|
E|---------------------------|---------------------------|
     Heart and soul, baby,


G|------ ------ ------ ------|------ ------ ------ ------|
D|5------5------5------5-----|5------5------5------5-----|
A|---------------------------|---------------------------|
E|---------------------------|---------------------------|
   It's all right then: John Lee Hooker,


G|------ ------ ------ ------|------ ------ ------ ------|
D|5------5------5------5-----|5------5------5------5-----|
A|---------------------------|---------------------------|
E|---------------------------|---------------------------|
   Jerome  Green,


G|------ ------ ------ ------|------ ------ ------ ------|
D|5------5------5------5-----|5------5------5------5-----|
A|---------------------------|---------------------------|
E|---------------------------|---------------------------|
   Rolling  Stones,


G|------ ------ ------ ------|------ ------ ------ ------|
D|5------5------5------5-----|5------5------5------5-----|
A|---------------------------|---------------------------|
E|---------------------------|---------------------------|
   Memphis  Slim up there,


G|------ ------ ------ ------|------ ------ ------ ------|
D|5------5------5------5-----|5------5------5------5-----|
A|---------------------------|---------------------------|
E|---------------------------|---------------------------|
   Jimmy Reed too, baby,


G|------ ------ ------ ------|------ ------ ------ ------|
D|5------5------5------5-----|5------5------5------5-----|
A|---------------------------|---------------------------|
E|---------------------------|---------------------------|
 Sonny Boy Williamson, baby...
fade out...

Almost there ...

Sign in to get your own page with links to favourite songs and more. You are just one click away...

Login with Facebook Login with Google