Log in

One click and you are in

Login with Facebook Login with Google

Why sign up and log in

Guitar Tabs Explorer
The Animals bass tabs for Bring it on home to me

Bring It On Home To Me bass tab by The Animals

The Animals bass tabs for Bring it on home to me

Bass tabs

Into:
  .       .       .       .
G|------4-7-4-7----------------------4-7-4-7---------------
D|-5------------------4-7-4-7---5------------------4-7-4-7-
A|---------------5----------------------------5------------
E|---------------------------------------------------------
Verse 1, 2 & 3:
  .      .      .       .      .    .
G|-----4-7-4-7----------------------------------------------------
D|-5----------------4-7-4-7--------------------2-5-2-5------------
A|--------------5----------------2-5-2-5---3----------------2-5-2-
E|---------------------------3--------------------------3---------
  .
G|----------------------------------------------------
D|--------------------------------------------------4-
A|-3---345---5-3-2-----0-2-3---3-2-0---2-3-4-5---5-7--
E|----------------3---3-------------3-----------------


Solo: (Play Crochets)
G|-------------------------------------------------------------
D|-5--5-5--5-5--5-5--5---------------------5--5-5--5-5--5-5--5-
A|---------------------5--5-5--5-5--5-5--5---------------------
E|-------------------------------------------------------------

G|-----------------------------------------------------------------
D|---------------------5--5-5--5-----------------------------------
A|-3--3-3--3-3--3-3--3-----------5--5-5--5---3--3-3--3---5--5-5--5-
E|-----------------------------------------------------------------

G|-----4-7-5---5-4--------------------
D|-5--5-----------7-5---5-4---------4-
A|-------------------------7-5---5-7--
E|------------------------------------

Verse 4:
  .      .      .       .      .    .
G|-----4-7-4-7----------------------------------------------------
D|-5----------------4-7-4-7--------------------2-5-2-5------------
A|--------------5----------------2-5-2-5---3----------------2-5-2-
E|---------------------------3--------------------------3---------
  .
G|-----------------------------------------------------
D|-----------------------------------------------------
A|-3---345---5-3-2-----0-2-3---3-2-0---2-3-4-5---5-3-2-
E|----------------3---3-------------3------------------

Last Verse (Play Quavers):
G|-----------------------------------------------------
D|-----------------------------------------------------
A|-------------------55555555-55555555-----------------
E|-33333333-33333333-------------------33333333-333333-

G|-------------------------------------------------------------
D|-------------------------------------------------------------
A|-0233333333-33333333-----------55555555-3333333-4-555555-3-2-
E|----------------------33333333-------------------------------


Outro: (Repeat To Fade/End)
G|--------------------
D|--------------------
A|-------02333333-2-0-
E|-333333-------------

Almost there ...

Sign in to get your own page with links to favourite songs and more. You are just one click away...

Login with Facebook Login with Google