Log in

One click and you are in

Login with Facebook Login with Google

Why sign up and log in

Guitar Tabs Explorer
Angus And Julia Stone bass tabs for Big jet plane

Big Jet Plane bass tab by Angus And Julia Stone

Angus And Julia Stone bass tabs for Big jet plane

Bass tabs

Tuning: Standard (E A D G)

Bass comes in at 1:18 for verse 2


Verse 2: 1:18

G|--------|--------|--------|--------|
D|--------|--------|--------|--------|
A|-4----4-|-1----1-|--------|------1-|
E|--------|--------|-1----1-|-1------|

G|--------|--------|--------|--------|
D|--------|--------|--------|--------|
A|-4----4-|-1----1-|--------|--------|
E|--------|--------|-1----1-|-4----4-|
Chorus: 1:36

G|-------------|-------------|-------------|-------------|
D|-------------|-------------|-------------|-------------|
A|-4---4-4---4-|-1---1-1---1-|-------------|-----------1-|
E|-------------|-------------|-1---1-1---1-|-1---1-1-----|
                              x2
G|-------------|-------------|-------------|-------------|
D|-------------|-------------|-------------|-------------|
A|-4---4-4---4-|-1---1-1---1-|-------------|-----------1-|
E|-------------|-------------|-1---1-1---1-|-4---4-4-----|

Interlude: 2:11

G|-----------------|-----------------|-----------------|-----------------|
D|-----------------|-----------------|-----------------|-----------------|  x2
A|-4-4-4-4-4-4-4-4-|-1-1-1-1-1-1-1-1-|-----------------|-----------------|
E|-----------------|-----------------|-1-1-1-1-1-1-1-1-|-1-1-1-1-1-1-1-1-|

Bridge: 2:28

G|---------------|---------------|---------------|---------------|
D|---------------|---------------|---------------|---------------|  x2
A|---------------|---------------|---------------|---------------|
E|-2-------------|-4-------------|-6---6---6---6-|-6---6---6---6-|

G|---------------|---------------|---------------|---------------|
D|---------------|---------------|---------------|---------------|
A|---------------|---------------|---------------|---------------|
E|-2---2---2---2-|-4---4---4---4-|-6---6---6---6-|-6---6---6---6-|

G|-----------------|-----------------|---------------------------------|
D|-----------------|-----------------|---------------------------------|
A|-----------------|-----------------|---------------------------------|
E|-2-2-2-2-2-2-2-2-|-4-4-4-4-4-4-4-4-|-6-6-6-6-6-6-6-6-6-6-6-6-6-6-6-6-|


Chorus: 3:03

G|-------------|-------------|-------------|-------------|
D|-------------|-------------|-------------|-------------|
A|-4---4-4---4-|-1---1-1---1-|-------------|-----------1-|
E|-------------|-------------|-1---1-1---1-|-1---1-1-----|
                              x2
G|-------------|-------------|-------------|-------------|
D|-------------|-------------|-------------|-------------|
A|-4---4-4---4-|-1---1-1---1-|-------------|-----------1-|
E|-------------|-------------|-1---1-1---1-|-4---4-4-----|


Outro: 3:38

G|--------|--------|--------|--------|
D|--------|--------|--------|--------|
A|-4----4-|-1----1-|--------|------1-|
E|--------|--------|-1----1-|-1------|

G|--------|--------|--------|--------|
D|--------|--------|--------|--------|
A|-4----4-|-1----1-|--------|--------|
E|--------|--------|-1----1-|-1------|

Almost there ...

Sign in to get your own page with links to favourite songs and more. You are just one click away...

Login with Facebook Login with Google