Log in

One click and you are in

Login with Facebook Login with Google

Why sign up and log in

Guitar Tabs Explorer
Angra tabs for Silence and distance

Guitar tabs

Angra - Silence and Distance

/ ou - slide
~~~~~ - vibrato
h     - hammer on
p     - pull off


Main riff(CD  : 1'29)


 A chord diagramB minorBm
      ___3___  ___3___  ___3___  ___3___
   |------------------------------------------|
   |------------------------------------------|
 4 |------------------------------------------|
 4 |-----4--5-----2-----0-----2-----4---------|
   |--2--------2-----2-----2-----2-----2------|
   |------------------------------------------|

           ___3___  ___3___  ___3___
   |------------------------------------------|
   |------------------------------------------|
 3 |------------------------------------------|
 4 |----------4--5-----2-----0-----2----------|
   |-------2--------2-----2-----2-------------|
   |------------------------------------------|

      ___3___  ___3___  ___3___  ___3___
   |------------------------------------------|
   |------------------------------------------|
 4 |------------------------------------------|
 4 |-----4--5-----2-----0-----2-----4---------|
   |--2--------2-----2-----2-----2-----2------|
   |------------------------------------------|

         A chord diagramG+G                A chord diagramA augmentedA
   |------------------------------------------|
   |-----3----------------2-------------------|
   |-----0----------------2-------------------|
   |-----0----------------2-------------------|
   |-----2----------------0-------------------|
   |-----3------------------------------------|



First part of solo:

I--------------------------------------------------I
I-----14-/-16-------16----16-----16~~~~~~----------I
I--------------------------------------------------I
I--------------------------------------------------I
I--------------------------------------------------I
I--------------------------------------------------I


I-----------------------------------------I
I---15-/-17---------17~~~~~---------------I
I-----------------------------------------I
I-----------------------------------------I
I-----------------------------------------I
I-----------------------------------------I


   _____4_____  _____4______  ______4_____  _______5_______

I---------------15-16-15------15------------------15-----------I
I--15-17-18-19------------19------19-18-17--18-19----19-17-----I
I--------------------------------------------------------------I
I--------------------------------------------------------------I
I--------------------------------------------------------------I
I--------------------------------------------------------------I


 ________5_______  _______5_______  ____4_____

I--------------------------------------------------------------I
I--------------------------------------------------------------I
I--16----------------------------------------------------------I
I-----18-17-16------17-16-14-15-16--14h16p14-----14------------I
I--------------18----------------------------16-----16-14------I
I--------------------------------------------------------------I


Second part of solo:


I-----------------------------------------------------------------I
I-------------------------------------------------9-10------------I
I------------------------------------9----11-9---------11----9-11-I
I--4--4---4-2-4-6-4-6-7-6-7-9-7-9/11---11------11---------11------I
I-----------------------------------------------------------------I
I-----------------------------------------------------------------I


I----------------------14------------------------------I
I---------10------10--------9--------------------------I
I------------------------------11-------9--13--9-------I
I-----11------11-------------------11------------------I
I--9---------------------------------------------------I

Almost there ...

Sign in to get your own page with links to favourite songs and more. You are just one click away...

Login with Facebook Login with Google