Log in

One click and you are in

Login with Facebook Login with Google

Why sign up and log in

Guitar Tabs Explorer
Angra tabs for Reaching horizons

Guitar tabs

ANGRA
-----
REACHING HORIZONS

Transcribed By Sócrates
<socrates@dreamtheater.zzn.com>
sometimes in ICQ: 84587081 (Socrates)
http://www.geocities.com/socratesworld

   This is a quite pretty song,I didn't made whole
transcription, so if
any person can do it, go ahead!!
  Any mistake or misunderstood, please email me;)
E-|--------0--------------|--------0-----------|-----------0--------|
B-|------3----0^1^0-------|------1----3^1------|-3------3----3--3/5-|
G-|---5--------------0^2--|---2------------2---|------0---------0---|
D-|-----------------------|-3----------------3-|---0----------------|
A-|-0---------------------|--------------------|-2------------------|
E-|-----------------------|--------------------|--------------------|


E-|-0------0^1--0------0--|-3----0^1^0--3------3/6-|-5------------------|
B-|-----------------------|---2--------------2-----|------6---------6---|
G-|------0-----------0----|---------------3--------|---5----5----5----5-|
D-|---2-----------2-------|-------------2----------|-0---------6--------|
A-|-3-----------3---------|------------------------|--------------------|
E-|-----------------------|------------------------|--------------------|


E-|--8---------||---------0---------|-------3-----|---------0----------||
B-|------------||-------1------1----|---1---------|-------1------1-----||
G-|------------||*----4------4---4--|-----4-------|-----2------2---2--*||
D-|------------||*--2---------------|-------------|---3---------------*||
A-|------------||-0-----------------|-0-----------|-3------------------||
E-|------------||-------------------|-------------|--------------------||

E-|-(12)--------|----------0----|----------0------|------------0--------|
B-|-------(13)--|--------6---6--|--------3---3----|-3------6------------|
G-|-------------|------5--------|------4----------|-----4---------------|
D-|-------------|----7----------|----5---------5--|---3------6----------|
A-|-------------|--8------------|--5--------------|-2------5------------|
E-|-------------|---------------|-----------------|---------------------|


E-|-7------4------|
B-|-----6----6----|
G-|---7--------7--|
D-|-6------0------|
A-|---------------|
E-|---------------|


=====
"Quedé desfallecido de escudriñar la verdad"
SÓCRATES

Other versions of Reaching Horizons

Reaching horizonsChords

Almost there ...

Sign in to get your own page with links to favourite songs and more. You are just one click away...

Login with Facebook Login with Google