Log in

One click and you are in

Login with Facebook Login with Google

Why sign up and log in

Guitar Tabs Explorer
Angra tabs for Lisbon

Guitar tabs with lyrics

Angra - Lisbon

-*Intro*-

repeat 6 times

|--------------------------|-------------------------|
|-5-5---5-5---5-5-6-3-5----|-5-5-6-3-5-----5---------|
|------------------------5-|------------5-----4---2--|
|--------------------------|-------------------------|
|--------------------------|-------------------------|
|--------------------------|-------------------------|

|--------------------------|-------------------------|
|--------------------------|-------------------------|
|-9------------------------|-------------------------|
|-9------------------------|-------------------------|
|-7------------------------|-------------------------|
|--------------------------|-------------------------|

|--------------------------|-------------------------|
|--------------------------|-------------------------|
|-7------------------------|-6-------------4---------|
|-7------------------------|-6-------------4---------|
|-5------------------------|-3-------------2---------|
|--------------------------|-------------------------|



  A chord diagramA minorAm                   Cmaj      A chord diagramA minorAm                  Cmaj
|------------------------------|-------------------------|
|-1---------------------1------|-1-------------------1---|
|-2----------------------------|-2-----------------------|
|-2---------------------2------|-2-------------------2---|
|-----------------------3------|---------------------3---|
|-----------------------3------|---------------------3---|

  Everynight I say a prayer      Look at me:nobody cares
  Stay with me not for so long   It's alright: no needs,no hope

  See, the birds are back...     At the docks and everywhere



  Fmaj                  A chord diagramA minorAm       Cmaj
|------------------------------|-------------------------|
|-----------------------1------|-1-----------------------|
|-3---------------------2------|-------------------------|
|-2---------------------2------|-2-----------------------|
|-2----------------------------|-3-----------------------|
|-1----------------------------|-3-----------------------|

  Just a mirror, passing by...   Looked inside
  Such a miracle, looking back...Times gone by,

  Here in Lisbon, realized       This whole world


  Bmaj             A chord diagramA minorAm
|--------------------------------------------------------|
|-4----------------1-------------------------------------|
|-2----------------2-------------2-----------------------|
|-4----------------2----------2-----2-----2--------------|
|-2------------------------------------3-----0-----------|
|--------------------------------------------------------|

  I've lost my pride...!
  and life wasn't bad...!

  so strange and divine.


* Part A chord diagramA augmentedA

|-----------------------------|--------------------------|
|-----------------------------|--------------------------|
|--9------------10---7----9---|--10--------7-----9-------|
|--9------------10---7----9---|--10--------7-----9-------|
|--7------------8----5----7---|--8---------5-----7-------|
|-----------------------------|--------------------------|

  Lo________rd, light my way     Fi___ll  these withered

|--------------------------------------------------------|
|--------------------------------------------------------|
|---10---7----9------------------------------------------|
|---10---7----9------------------------------------------|
|---8----5----7------------------------------------------|
|--------------------------------------------------------|

   careless hands...

* part A chord diagramBB

|--------------------------------------------------------|
|--------------------------------------------------------|
|---5-------------------4--------------------------------|
|---5-------------------5--------------------------------|
|---3-------------------5--------------------------------|
|-----------------------3--------------------------------|

   O______h, skies are falling down
   O______h, skies are falling down


|--------------------------------------------------------|
|--------------------------------------------------------|
|--------------2--------------7---7---5---4--------------|
|--------------3--------------7---7---5---4--------------|
|--------------3--------------5---5---3---2--------------|
|--------------1-----------------------------------------|

    Skies are falling down

Almost there ...

Sign in to get your own page with links to favourite songs and more. You are just one click away...

Login with Facebook Login with Google