Log in

One click and you are in

Login with Facebook Login with Google

Why sign up and log in

Guitar Tabs Explorer
Angra chords for Heroes of sand

Guitar chords with lyrics

A chord diagramE MajorE|------------------------------(17)------------------------------------------
A chord diagramBB|--------8---(12)-----------(15)--------------(12)-----------------(15)------
A chord diagramG+G|----------------------11----------------7-------------------11--------------
A chord diagramD MajorD|------9--(12)-----------(14)--------------(12)---(12)----------(14)---(14)--
A chord diagramA augmentedA|----7---------------12----------------9-------------------12----------------
A chord diagramE MajorE|--0--------------10-----------------7------------------10--------------10---
A chord diagramE MajorE|------------------------------(17)-----------------------------------(15)---
A chord diagramBB|--------8---(12)-----------(15)--------------(12)-----------------(13)------
A chord diagramG+G|----------------------11----------------7-------------------9---------------
A chord diagramD MajorD|------9--(12)-----------(14)--------------(12)---(12)----------(12)---------
A chord diagramA augmentedA|----7---------------12----------------9------------------10-----------------
A chord diagramE MajorE|--0--------------10-----------------7------------------8--------------------


A chord diagramE MajorE|---------(12)-----(12)-----------(12)-------(12)-----(12)-------------------
A chord diagramBB|---------(10)-----(10)-------(10)-----------(10)-----(10)----------(10)-----
A chord diagramG+G|------5----------------5------------------5---------------5-----------------
A chord diagramD MajorD|---------(9)------(9)-----------------------(9)------(9)--------(9)---------
A chord diagramA augmentedA|----7----------7------------7-----------7----------7--------7---------------
A chord diagramE MajorE|--5----------5------------5-----------5----------5------------5-------------


A chord diagramE MajorE|------------------------------(17)------------------------------------------
A chord diagramBB|--------8---(12)-----------(15)--------------(12)-----------------(15)------
A chord diagramG+G|----------------------11----------------7-------------------11--------------
A chord diagramD MajorD|------9--(12)-----------(14)--------------(12)---(12)----------(14)---(14)--
A chord diagramA augmentedA|----7---------------12----------------9-------------------12----------------
A chord diagramE MajorE|--0--------------10-----------------7------------------10--------------10---


A chord diagramE MajorE|--------(12)----(12)--------------------------------------------------------
A chord diagramBB|--------(10)----(10)---------(12)----(13)--------(13)-------9----(13)-------
A chord diagramG+G|------5--------------5------------9-----------------------------------------
A chord diagramD MajorD|--------(9)-----(9)----------(12)---(12)----(12)-------------(12)---(12)----
A chord diagramA augmentedA|----7---------7----------7--------10-------10------------10-----------------
A chord diagramE MajorE|--5---------5----------5---7------8------8------------8---------------------

A chord diagramE MajorE|------------------------------(17)-----------------------------------(15)---
A chord diagramBB|--------8---(12)-----------(15)--------------(12)-----------------(13)------
A chord diagramG+G|----------------------11----------------7-------------------9---------------
A chord diagramD MajorD|------9--(12)-----------(14)--------------(12)---(12)----------(12)---------
A chord diagramA augmentedA|----7---------------12----------------9------------------10-----------------
A chord diagramE MajorE|--0--------------10-----------------7------------------8--------------------


A chord diagramE MajorE|--------(12)-----(12)-------------------------------------------------------
A chord diagramBB|--------(10)-----(10)----------(12)----------(13)---------------------------
A chord diagramG+G|------5---------------5-------------------9---------------------------------
A chord diagramD MajorD|--------(9)------(9)-----------(12)----------(12)---------------------------
A chord diagramA augmentedA|----7----------7----------7---------------10--------------------------------
A chord diagramE MajorE|--5----------5----------5---7-------------8---------------------------------


Intro:
A chord diagramE minorEm      A chord diagramD MajorD
Sealing light
A chord diagramB minorBm             A chord diagramD MajorD
Nothing to see
A chord diagramE minorEm      A chord diagramD MajorD       A chord diagramB minorBm
Like a miracle life
A chord diagramC majorC               A chord diagramA minorAm
Starts with the pain
            A chord diagramE minorEm          A chord diagramD MajorD A chord diagramB minorBm A chord diagramD MajorD
Forever this will be


A chord diagramE minorEm       A chord diagramD MajorD
Close my eyes
A chord diagramB minorBm                  A chord diagramD MajorD
Thunders won't cease
A chord diagramE minorEm      A chord diagramD MajorD            A chord diagramB minorBm
Crawling down to the edge
A chord diagramC majorC                A chord diagramA minorAm
I break down and weep
            A chord diagramE minorEm        A chord diagramD MajorD  A chord diagramB minorBm A chord diagramC majorC
Tears on a river deep


A chord diagramA minorAm A chord diagramC majorC      A chord diagramE minorEm        A chord diagramD MajorD  A chord diagramB minorBm  A chord diagramC majorC
Oh! Back to the sea
A chord diagramA minorAm  A chord diagramC majorC
Oh ooo!


A chord diagramB minorBm       A chord diagramG+G
Shout loud
A chord diagramA augmentedA       A chord diagramD MajorD
Moving ahead
A chord diagramB minorBm        A chord diagramG+G          A chord diagramA augmentedA
Ride the horses of justice
A chord diagramD MajorD         A chord diagramG+G        A chord diagramE minorEm
Virtues of men, yawns!


A chord diagramB minorBm        A chord diagramG+G
Down and out
A chord diagramA augmentedA           A chord diagramD MajorD
Losing my head
A chord diagramB minorBm         A chord diagramG+G            A chord diagramA augmentedA
Like a dream you're returning
A chord diagramD MajorD               A chord diagramG+G       A chord diagramE minorEm
Back from the dead-awake!
A chord diagramC majorC            A chord diagramA7A7         A chord diagramE MajorE
Shadows will fade someday


A chord diagramA minorAm                 A chord diagramFF
All the heroes go down
           A chord diagramC majorC            A chord diagramG+G
Shed their blood on the land
A chord diagramA minorAm           A chord diagramFF
Dreaming somehow
      A chord diagramC majorC             A chord diagramG+G
The divine will now stand
A chord diagramA minorAm         A chord diagramFF
Heroes go down
           A chord diagramC majorC               A chord diagramG+G
With their hearts on their hands
A chord diagramFF                             A chord diagramA minorAm                        A chord diagramE MajorE
Building (is building) their castles (build up) on the sand


Solo:
A chord diagramE MajorE|-------------|-----------------|------------|---------------------------|
A chord diagramBB|-------------|-----------------|------------|---------------------------|
A chord diagramG+G|--14~~-------|------12/14/12~--|--9/10/9~---|-7--9--10--12---10--9--7/5-|
A chord diagramD MajorD|-------------|-----------------|------------|---------------------------|
A chord diagramA augmentedA|-------------|-----------------|------------|---------------------------|
A chord diagramE MajorE|-------------|-----------------|------------|---------------------------|

|---------------------------|
|---------------------------|
|----4h~----4---------------|
|--------------7----5-7~~---|
|-----------------7---------|
|---------------------------|

A chord diagramE MajorE|----17------15/17/15~----17----14/15/14~|----17------19-20-19~---17-19-20b----|
A chord diagramBB|----------------------------------------|-------------------------------------|
A chord diagramG+G|-14----14-13----------14--14-13---------|14-----14-13-------------------------|
A chord diagramD MajorD|----------------------------------------|-------------------------------------|
A chord diagramA augmentedA|----------------------------------------|-------------------------------------|
A chord diagramE MajorE|----------------------------------------|-------------------------------------|

|--20-19-17---------------|-------------------------------------|
|-----------20b20b--------|-------------------------------------|
|-------------------------|---9~-9--7---7-----------------------|
|-------------------------|-----------9-------------------------|
|-------------------------|-------------------------------------|
|-------------------------|-------------------------------------|

|-12b--12b~~~----11b--11b~~~------12h13p12------------------------------------------
|-15b--15b~~~----14b--14b~~~--------------15-13-12----------------------------------
|-------------------------------------------------14-14-13h14p13--------------------
|---------------------------------------------------------------15-14-12------------
|-----------------------------------------------------------------------15-14-12-14-
|------------------------------------------------------------------------------------


Solo: A chord diagramFF G7/F A chord diagramFmaj7Fmaj7 A chord diagramFmaj7Fmaj7 A chord diagramA minorAm A chord diagramA minorAm
       A chord diagramFF G7/F A chord diagramFmaj7Fmaj7 G7/F A chord diagramA minorAm A chord diagramC majorC Bm7(b5) A chord diagramE MajorE

A chord diagramFF               A chord diagramC majorC
Haunted by the heavy clouds
A chord diagramG+G          A chord diagramD MajorD         A chord diagramA augmentedA
Thunder scaring away
A chord diagramBb majorBb              A chord diagramFF
Howling like a mountain wolf
A chord diagramC majorC            A chord diagramG+G               A chord diagramD MajorD
Warriors are leading the way


A chord diagramA minorAm                 A chord diagramFF
All the heroes go down
           A chord diagramC majorC            A chord diagramG+G
Shed their blood on the land
A chord diagramA minorAm           A chord diagramFF
Dreaming somehow
      A chord diagramC majorC             A chord diagramG+G
The divine will now stand
A chord diagramB minorBm         A chord diagramG+G
Heroes go down
           A chord diagramD MajorD              A chord diagramA augmentedA
With their hearts on their hands
A chord diagramG+G                             A chord diagramB minorBm                        A chord diagramF#F#
Building (is building) their castles (build up) on the sand


        A chord diagramG+G   A chord diagramB minorBm        A chord diagramA augmentedA         A chord diagramD MajorD                  A chord diagramG+G   A chord diagramE minorEm           A chord diagramD MajorD         A chord diagramA augmentedA
on the saaaand . . . . heroe go down . . . on the saaaand . . . heroes of the sand


( A chord diagramG+G A chord diagramB minorBm A chord diagramA augmentedA A chord diagramD MajorD A chord diagramG+G A chord diagramE minorEm A chord diagramF#F# A chord diagramG+G A chord diagramB minorBm A chord diagramA augmentedA A chord diagramD MajorD A chord diagramG+G A chord diagramE minorEm A chord diagramD MajorD A chord diagramA augmentedA A chord diagramG+G A chord diagramB minorBm A chord diagramA augmentedA A chord diagramD MajorD A chord diagramG+G A chord diagramE minorEm A chord diagramF#F# )


Solo 2:
A chord diagramE MajorE|------------------------------------------------------9-10-9-------|
A chord diagramBB|------------------------------------------------10-12--------12-10-|
A chord diagramG+G|----------------------------------------9-11-12--------------------|
A chord diagramD MajorD|------------------9-11-12-11-9----11-12----------------------------|
A chord diagramA augmentedA|----------9-10-12--------------12----------------------------------|
A chord diagramE MajorE|--9-10-12----------------------------------------------------------|

|-------------------------|--------------------|
|--10b-----10b10-7---7-10-|--------------------|
|------------------9------|--9~-9---7---7------|
|-------------------------|-----------9--------|
|-------------------------|--------------------|
|-------------------------|--------------------|

|-----------------------17-14-------------|--14-------17-------14b---------|
|--14-15-14----14-15----------15-17-14-15-|-----15-------15----------17-15-|
|-----------16-------14-------------------|--------14-------14-------------|
|-----------------------------------------|--------------------------------|
|-----------------------------------------|--------------------------------|
|-----------------------------------------|--------------------------------|

|--19-17-19-17/14----14-17-------------------|----------------------------|
|-----------------17-------19-15-17----15----|--15-14----14---------------|
|-----------------------------------16----16-|--------16----16-14/11------|
|--------------------------------------------|----------------------------|
|--------------------------------------------|----------------------------|
|--------------------------------------------|----------------------------|

|--9-10-9-7----------------------|----------------------|
|-----------10-7---7-------------|----------------------|
|----------------9---9~7---9---7-|----------------------|
|------------------------9---9---|--9-7-----------------|
|--------------------------------|------9-7-------------|
|--------------------------------|----------5/7/5-----7-|

|-----------------------------------------------------------------------|
|--------------------------------------------------------------12-14-15-|
|-----------------------------------11----------------11-12-14----------|
|------------------9-11-12-11-12-14----14-12-11-12-14-------------------|
|----------9-10-12------------------------------------------------------|
|--9-10-12--------------------------------------------------------------|

|--17--14------------------14-|--14-10/9-10h9----------------------|
|---------17b-17-15-17--------|---------------10----10-12----10----|
|-----------------------------|------------------11-------11----10-|
|-----------------------------|------------------------------------|
|-----------------------------|------------------------------------|
|-----------------------------|------------------------------------|

|---------------------|--------------7-9-|--10-9-7----7-9-14------|
|---------------------|--10b-------------|---------10-------------|
|--9-7---9---7--------|------------------|------------------------|
|------9---9---7------|------------------|------------------------|
|---------------------|------------------|------------------------|
|---------------------|------------------|------------------------|

|--19-14-------------------------------|
|--------17-14----14-17-14-------------|
|--------------16----------16-15-------|
|--------------------------------17-16-|
|--------------------------------------|
|--------------------------------------|

|--18-14----------------------------------------15-17-19-|--17b-----19--17--14--|
|--------17-14-------------------------15-17-19----------|----------------------|
|--------------15-------------14-16-18-------------------|----------------------|
|-----------------17-16-17-16----------------------------|----------------------|
|--------------------------------------------------------|----------------------|
|--------------------------------------------------------|----------------------|

|--21r-----21--------|--22----21----19------------|
|-----------------19-|-----19----19----19-22b-----|
|--------------------|----------------------------|
|--------------------|----------------------------|
|--------------------|----------------------------|
|--------------------|----------------------------|

|--21----19/17-19h17-------------------|------------------------------|
|-----22-------------22/19h17-19/17-15-|--17b---17-15-17-----15-17-15-|
|--------------------------------------|------------------------------|
|--------------------------------------|------------------------------|
|--------------------------------------|------------------------------|
|--------------------------------------|------------------------------|

|----------------------------|
|-----14-15------------------|
|--16-------16-14-16-11------|
|----------------------------|
|----------------------------|
|----------------------------|

|--14h10----10-------12----17h14----14----------------------------------------10-
|--------14----14-15----14-------17----15-14-------12-15-------------------12----
|--------------------------------------------16-14-------14/13----13-11-13-------
|--------------------------------------------------------------16----------------
|--------------------------------------------------------------------------------
|--------------------------------------------------------------------------------

|--14-10-12-14-17-14-12-10-17-14-17-14-12-10-17-14-12-10-17-14-17-14-12-10/|
|--------------------------------------------------------------------------|
|--------------------------------------------------------------------------|
|--------------------------------------------------------------------------|
|--------------------------------------------------------------------------|
|--------------------------------------------------------------------------|

|--17-------14----14/12-12-|--12-7-7-9--10h9-7---------|
|--------------17----------|-------------------10b-----|
|--------------------------|---------------------------|
|--------------------------|---------------------------|
|--------------------------|---------------------------|
|--------------------------|---------------------------|

|--9-10-9-7--------------------|---------------------|
|-----------10-7---------------|---------------------|
|----------------9-9b9-7---9---|--7/4----------------|
|------------------------9---9-|------7-4/2/4-7------|
|------------------------------|---------------------|

Other versions of Heroes Of Sand

Heroes of sandTabs

Almost there ...

Sign in to get your own page with links to favourite songs and more. You are just one click away...

Login with Facebook Login with Google