Log in

One click and you are in

Login with Facebook Login with Google

Why sign up and log in

Guitar Tabs Explorer
Angels And Airwaves bass tabs for Kiss  tell

Bass tabs

Intro

  Bass at 0:11

G|-----------------|-----------------|-----------------|-----------------|
D|-----------------|-----------------|-----------------|-----------------|
A|-5-5-------------|-----------------|-----------------|-----------------|
D|-----------------|-----------------|-----------------|-----------------|

G|-----------------|-----------------|-----------------|-----------------|
D|-----------------|-----------------|-----------------|-----------------|
A|-5-5-------------|-----------------|-5-5-------------|-----------------| x3
D|-----------------|-----------------|-----------------|-----------------|

Pre-Verse 1

G|-----------------|-----------------|-----------------|-----------------|
D|-----------------|-4h7p4-----------|-----------------|-4h7p4-------4---|
A|-----5-----------|-------4---4-5---|-----5-----------|-------7---7-----|
D|-0-0-------------|---------------0-|---0-------------|---------------0-|

G|-----------------|-----------------|-----------------|------------------|
D|-----------------|-4h7p4-----------|-----------------|-4h7p4-------4----|
A|-----5-----------|-------4---4-5---|-----5-----------|-------7---7---10-|
D|---0-------------|---------------0-|---0-------------|------------------|

G|--------------------|------------------|--------------------|-----------------|
D|--------------------|------------------|--------------------|-----------------|
A|---10-10-10-9-9-9-9-|-7-7-7-5---5-5-10-|---10-10-10-9-9-9-9-|-7-7-7-5---4-5---|
D|--------------------|------------------|--------------------|---------------0-|

G|-----------------|-----------------|-----------------|-----------------|
D|-----------------|-4h7-4-----------|-----------------|-4h7-4-------4---|
A|-----5-----------|-------4---4-5---|-----5-----------|-------7---7-----|
D|---0-------------|---------------0-|---0-------------|-----------------|

Verse 1

G|------------16--------|-------16--------------|------------16--------|-------16---------18-19-|
D|------16-19-----------|-16-19---------19-16---|------16-19-----------|-16-19------16-19-------|
A|---17--------------17-|------------17---------|---17--------------17-|------------------------| x4
D|----------------------|-----------------------|----------------------|------------------------|


Chorus 1

G|-----------------|-----------------|-----------------|-----------------|
D|-----------------|-----------------|-----------------|-----------------|
A|-----------------|-----------------|-----------------|-----------------|
D|-4-4-4-4-----4-4-|-4-4-4-4-4-4-4-4-|-5-5-5-5-----5-5-|-5-5-5-5-5-5-5-7-|

G|-----------------|-----------------|-----------------|-----------------|
D|-----------------|-----------------|-----------------|-----------------|
A|-----------------|-------------5-7-|-----------------|---4-4---4---4-5-|
D|-0-0-0-0---0-0-0-|-0-0-0-0-0-0-----|-7-----7-----7---|-------7---7-----|

G|-----------------|-----------------|-----------------|-----------------|
D|-----------------|-----------------|-----------------|-----------------|
A|-----------------|-----------------|-----------------|-----------------|
D|-4-4-4-4-----4-4-|-4-4-4-4-4-4-4-4-|-5-5-5-5-----5-5-|-5-5-5-5-5-5-5-7-|

G|-----------------|-----------------|-----------------|-----------------|
D|-----------------|-----------------|-----------------|-----------------|
A|-----------------|-----------------|-----------------|---4-4---4---4-5-|
D|-0-0-0-0-----0-0-|-0-0-0-0-0-0-0-0-|-7-----7-----7---|-------7---7-----|

Pre-Verse 2

G|-----------------|-----------------|
D|-----------------|-----------------|
A|-----------------|-----------------|
D|-----------------|-----------------|

G|-----------------|-----------------|-----------------|-----------------|
D|-----------------|-4h7p4-----------|-----------------|-4h7p4-------4---|
A|-----5-----------|-------4---4-5---|-----5-----------|-------7---7-----|
D|-0-0-------------|---------------0-|---0-------------|---------------0-|

G|-----------------|-----------------|-----------------|-----------------|
D|-----------------|-4h7p4-----------|-----------------|-4h7p4-------4---|
A|-----5-----------|-------4---4-5---|-----5-----------|-------7---7-----|
D|---0-------------|---------------0-|---0-------------|-----------------|


Verse 2

G|-----------------|-----------------|-----------------|-----------------|
D|-----------------|-----------------|-----------------|-----------------|
A|-----------------|-----------------|-----------------|-------------4-5-| x4
D|-0-0-0-0-0-0-0-0-|-0-0-0-0-0-0-0-0-|-4-4-4-4-4-4-4-4-|-7-7-7-7-7-7-----|


Chorus 2

G|-----------------|-----------------|-----------------|-----------------|
D|-----------------|-----------------|-----------------|-----------------|
A|-----------------|-----------------|-----------------|-----------------|
D|-4-4-4-4-----4-4-|-4-4-4-4-4-4-4-4-|-5-5-5-5-----5-5-|-5-5-5-5-5-5-5-7-|

G|-----------------|-----------------|-----------------|-----------------|
D|-----------------|-----------------|-----------------|-----------------|
A|-5-5-5-5-----5-5-|-5-5-5-5-5-5-5-7-|-----------------|---4-4---4---4-5-|
D|-----------------|-----------------|-7-----7-----7---|-------7---7-----|

G|-----------------|-----------------|-----------------|-----------------|
D|-----------------|-----------------|-----------------|-----------------|
A|-----------------|-----------------|-----------------|-----------------|
D|-4-4-4-4-----4-4-|-4-4-4-4-4-4-4-4-|-5-5-5-5-----5-5-|-5-5-5-5-5-5-5-7-|

G|-----------------|-----------------|-----------------|-----------------|
D|-----------------|-----------------|-----------------|-----------------|
A|-----------------|-----------------|-----------------|---4-4---4---4-5-|
D|-0-0-0-0-----0-0-|-0-0-0-0-0-0-0-0-|-7-----7-----7---|-------7---7-----|


Bridge

G|-----------------|-----------------|-----------------|-----------------|
D|-----------------|-----------------|-----------------|-----------------|
A|-----------------|-----------------|-----------------|-----------------|
D|-----------------|-----------------|-----------------|-----------------|

G|-----------------|-----------------|-----------------|-----------------|
D|-----------------|-----------------|-----------------|-----------------|
A|-5-5-------------|-----------------|-5-5-------------|-----------------| x5
D|-----------------|-----------------|-----------------|-----------------|


Chorus 3
                                      __
G|-----------------|-----------------|-----------------|-----------------|  |
D|-----------------|-----------------|-----------------|-----------------|  |
A|-----------------|-----------------|-----------------|-----------------|  |
D|-4-4-4-4-----4-4-|-4-4-4-4-4-4-4-4-|-5-5-5-5-----5-5-|-5-5-5-5-5-5-5-7-|  |
                                       | x2
G|-----------------|-----------------|-----------------|-----------------|  |
D|-----------------|-----------------|-----------------|-----------------|  |
A|-----------------|-----------------|-----------------|---4-4---4---4-5-|  |
D|-0-0-0-0-----0-0-|-0-0-0-0-0-0-0-0-|-7-----7-----7---|-------7---7-----| __|


Chorus 4

G|-----------------|-----------------|-----------------|-----------------|
D|-----------------|-----------------|-----------------|-----------------|
A|-----------------|-----------------|-----------------|-----------------|
D|-4-4-4-4-----4-4-|-4-4-4-4-4-4-4-4-|-5-5-5-5-----5-5-|-5-5-5-5-5-5-5-7-|

G|-----------------|-----------------|-----------------|-----------------|
D|-----------------|-----------------|-----------------|-----------------|
A|-5-5-5-5-----5-5-|-5-5-5-5-5-5-5-7-|-----------------|---4-4---4---4-5-|
D|-----------------|-----------------|-7-----7-----7---|-------7---7-----|

G|-----------------|-----------------|-----------------|-----------------|
D|-----------------|-----------------|-----------------|-----------------|
A|-----------------|-----------------|-----------------|-----------------|
D|-4-4-4-4-----4-4-|-4-4-4-4-4-4-4-4-|-5-5-5-5-----5-5-|-5-5-5-5-5-5-5-7-|

G|-----------------|-----------------|-----------------|-----------------|
D|-----------------|-----------------|-----------------|-----------------|
A|-----------------|-----------------|-----------------|---4-4---4---4-5-|
D|-0-0-0-0-----0-0-|-0-0-0-0-0-0-0-0-|-7-----7-----7---|-------7---7-----|


Outro

  Rest

Almost there ...

Sign in to get your own page with links to favourite songs and more. You are just one click away...

Login with Facebook Login with Google