Log in

One click and you are in

Login with Facebook Login with Google

Why sign up and log in

Guitar Tabs Explorer
Angels And Airwaves bass tabs for Anxiety

Bass tabs

Intro

  Bass at 0:12

G|----------------------------------------|
D|----------------------------------------|
A|--------------------3--5--7---8---------| x2
E|-3---5---8---1--------------------------|

G|----------------------------------------|
D|----------------------------------------|
A|--------------------3--5--7---8---10\---|
E|-3---5--8---1---------------------------|
Riff

G|---------------------------------------------------------------------------|
D|---------------------------------------------------------------------------|
A|-3-3-3-3-3---3---5-5-5-5-5-3-5-3-------------------------------------------|
E|-----------3---3-----------------5-5-5-5-5-5-5-5-1-1-1-1-1-0-1-3-----------|

G|---------------------------------------------------------------------------|
D|---------------------------------------------------------------------------|
A|-3-3-3-3-3---3---5-5-5-5-5-3-5-7-------------------------------------------|
E|-----------3---3-----------------5-5-5-5-5-5-5-5-1-1-1-1-1-0-1-3-----------|

G|---------------------------------------------------------------------------|
D|---------------------------------------------------------------------------|
A|-3-3-3-3-3---3---5-5-5-5-5-5-5-5-12-12-12-12-12-12-12-10-8-8-8-8-8-7-8-10--|
E|-----------3---3-----------------------------------------------------------|

G|---------------------------------------------------------------------------|
D|---------------------------------------------------------------------------|
A|-3-3-3-3-3---3---5-5-5-5-5-3-5-3-------------------------------------------|
E|-----------3---3-----------------5-5-5-5-5-5-5-5-1-1-1-1-1-0-1-3-----------|

Verse 1

G|---------------------------------------------------------------------------|
D|---------------------------------------------------------------------------|
A|---------------------------------------------------------------------------|
E|-5-5-5-5-5-5-5-5-7-7-7-7-7-7-7-7-8-8-8-8-8-8-8-8-10-10-10-10-10-10-10-10---|

G|---------------------------------------------------------------------------|
D|---------------------------------------------------------------------------|
A|---------------------------------------------------------------------------|
E|-5-5-5-5-5-5-5-5-7-7-7-7-7-7-7-7-8-8-8-8-8-8-8-8-10-10-10-10-10-8-10-8-----|

G|---------------------------------------------------------------------------|
D|---------------------------------------------------------------------------|
A|---------------------------------------------------------------------------|
E|-5-5-5-5-5-5-5-5-7-7-7-7-7-7-7-7-8-8-8-8-8-8-8-8-10-10-10-10-10-10-10-10---|

G|---------------------------------------------------------------------------|
D|---------------------------------------------------------------------------|
A|---------------------------------------------------------------------------|
E|-5-5-5-5-5-5-5-5-7-7-7-7-7-7-7-7-8-8-8-8-8-8-8-8-10-10-10-10-10-8-15\------|


Chorus 1

G|---------------------------------------------------------------------------|
D|---------------------------------------------------------------------------|
A|---------------------------------3-3-3-5-5-5-7-7-7-8-8-8-8-8-8-8-----------|
E|-3-3-3-5-5-5-8-8-8-1-1-1-1-1-1-1-------------------------------------------|

G|---------------------------------------------------------------------------|
D|---------------------------------------------------------------------------|
A|---------------------------------3-3-3-5-5-5-7-7-7-8-8-8-8-8-10\-----------|
E|-3-3-3-5-5-5-8-8-8-1-1-1-1-1-1-1-------------------------------------------|

After-Chorus/Riff

G|---------------------------------------------------------------------------|
D|---------------------------------------------------------------------------|
A|-3-3-3-3-3---3---5-5-5-5-5-3-5-7-------------------------------------------|
E|-----------3---3-----------------5-5-5-5-5-5-5-5-1-1-1-1-1-0-1-3-----------|

G|---------------------------------------------------------------------------|
D|---------------------------------------------------------------------------|
A|-3-3-3-3-3---3---5-5-5-5-5-5-5-5-12-12-12-12-12-12-12-10-8-8-8-8-8-7-8-7---|
E|-----------3---3-----------------------------------------------------------|


Verse 2

G|---------------------------------------------------------------------------|
D|---------------------------------------------------------------------------|
A|---------------------------------------------------------------------------|
E|-5-5-5-5-5-5-5-5-7-7-7-7-7-7-7-7-8-8-8-8-8-8-8-8-10-10-10-10-10-10-10-10---|

G|---------------------------------------------------------------------------|
D|---------------------------------------------------------------------------|
A|---------------------------------------------------------------------------|
E|-5-5-5-5-5-5-5-5-7-7-7-7-7-7-7-7-8-8-8-8-8-8-8-8-10-10-10-10-10-8-10-8-----|

G|---------------------------------------------------------------------------|
D|---------------------------------------------------------------------------|
A|---------------------------------------------------------------------------|
E|-5-5-5-5-5-5-5-5-7-7-7-7-7-7-7-7-8-8-8-8-8-8-8-8-10-10-10-10-10-10-10-10---|

G|---------------------------------------------------------------------------|
D|---------------------------------------------------------------------------|
A|---------------------------------------------------------------------------|
E|-5-5-5-5-5-5-5-5-7-7-7-7-7-7-7-7-8-8-8-8-8-8-8-8-10-10-10-10-10-8-15\------|


Chorus 2

G|---------------------------------------------------------------------------|
D|---------------------------------------------------------------------------|
A|---------------------------------3-3-3-5-5-5-7-7-7-8-8-8-8-8-8-8-----------| x4
E|-3-3-3-5-5-5-8-8-8-1-1-1-1-1-1-1-------------------------------------------|


Bridge

G|-----------------------------------------------------------------------------|
D|-----------------------------------------------------------------------------|
A|-----------------------------------------------------------------------------| x2
E|-5-----------3---7-----------5---8---------------10---------12\--------------|

G|-----------------------------------------------------------------------------|
D|-----------------------------------------------------------------------------|
A|-----------------------------------------------------------------------------|
E|-5-5-5-5-5-5-5-3-3-7-7-7-7-7-5-7-8-8-8-8-8-8-7-8-10-10-10-10-10-10-8-10-12---|

G|-----------------------------------------------------------------------------|
D|-----------------------------------------------------------------------------|
A|-----------------------------------------------------------------------------|
E|-5-5-5-5-5-5-5-3-3-7-7-7-7-7-5-7-8-8-8-8-8-8-7-8-10-10-10-10-10-10-8-15\-----|


Chorus 3

G|---------------------------------------------------------------------------|
D|---------------------------------------------------------------------------|
A|---------------------------------3-3-3-5-5-5-7-7-7-8-8-8-8-8-8-8-----------|
E|-3-3-3-5-5-5-8-8-8-1-1-1-1-1-1-1-------------------------------------------|

G|---------------------------------------------------------------------------|
D|---------------------------------------------------------------------------|
A|---------------------------------3-3-3-5-5-5-7-7-7-8-8-8-8-8-8-8-----------|
E|-3-3-3-5-5-5-8-8-8-1-1-1-1-1-1-1-------------------------------------------|

G|---------------------------------------------------------------------------|
D|-------------------10-10-10------------------------------------------------|
A|-10-10-10-12-12-12----------8-8-8-8-8-8-8-3-3-3-5-5-5-7-7-7-8-8-8-8-8-8-8--|
E|---------------------------------------------------------------------------|

G|---------------------------------------------------------------------------|
D|---------------------------------------------------------------------------|
A|---------------------------------3-3-3-5-5-5-7-7-7-8-8-8-8-8-8-8-3---------|
E|-3-3-3-5-5-5-8-8-8-1-1-1-1-1-1-1-------------------------------------------|

Almost there ...

Sign in to get your own page with links to favourite songs and more. You are just one click away...

Login with Facebook Login with Google