Log in

One click and you are in

Login with Facebook Login with Google

Why sign up and log in

Guitar Tabs Explorer
The Angels bass tabs for No exit

Bass tabs with lyrics

By: Angels
Album: Their Finest Hour...and then some

Comment: This is one of the more interesting songs to play for a bass.
In addition to the break and solo, the chorus gives lots of opportunity
to play with fills. If you like this song, also try "Shadow Boxer" by
Angels.

Follow the chord progression (as usual!) except where tab is noted.
Intro:
[A]

[A]Tell me why [C] [G]
[A]The secrets have disappeared [C] [G]
[A]Cover up [C] [G]
[A]The traces of wasted years [C] [G]
[E]The traces of wasted years [C]
[E]The mirrored face of fear [C] [G]
[A]Cover up [C] [G]
[A]The candle that sheds a tear [C] [G]
[A]Build it up [C] [G]
[A]Alibis for the dammed [C] [G]
[A]Hide away [C] [G]
[A]Don't ever reveal your plan [C] [G]
[E]Look down at your blood stained hands [C]
[E]No one spoke [C] [G]
[A]The information cited you by name [C] [G]
[A]The silken rope


Chorus:
[D]I know your gonna leave me with no [A]exit	x 2

[C] [G]
[A]Lock it up [C] [G]
[A]Standin' behind closed doors [C] [G]
[A]Give it up [C] [G]
[A]No hiding place anymore [C] [G]
[E]No hiding place anymore [C]
[E]You know that I know [C] [G]
Bass:
A ---------3-3-3-3---------3-3---
E -0-0-0-0---------0-0-0-0-----3-
[A]Where you are [C] [G]
[A]We've been through all this before

Chorus						x 2


Break [F#] [G] [A] [D] [B] [C] [D] [E]

Bass in break:
2.. means repeat the note
  F#  G  A     D       B
G ----------------------------------------4-2-----
D ---------------------------5-7-5------------4-2-
A -----------------5-7-5..-7-------7--2..---------
E -2..--3..--5..-7--------------------------------

  C     D         E
G -------------------------5-7-----------
D -------5-7----------5--7----------/9---
A -3..-7------5..-5-7-----------7..----7-
E ---------------------------------------

[A] [C] [D]
[A] [C] [D]
[A]Alibi [C] [D]
[A]Hiding behind closed doors [C] [D]
[A]Give it up [C] [D]
[A]No hiding place anymore [C] [D]
[E]No hiding place anymore [C]
[E]You know that we know [C] [G]
Bass:
G ---------------9-----
D ------9----6-9---9-6-
A -/7..----7-----------
[A]Just where you are [C] [D]
[A]We've been through all this before


Chorus	x 2

Bass solo:
[E]
G -----14--14----------------------------/14--17p16-14--------14--
D -----------15--15-14----12-14-------12--------------15p14-15----
A -/12------------------15------12--15----------------------------
E ----------------------------------------------------------------

G --------14--14----------------------------------------------------
D ------12------15--15-14----12-14----------------------------------
A -12-15-------------------15------12--12-14-15--12-14-15--14--12\--
E ----------------------------------------------------------------0-

Ad lib chorus
[D]
Bass does descending scale in D

Almost there ...

Sign in to get your own page with links to favourite songs and more. You are just one click away...

Login with Facebook Login with Google