Log in

One click and you are in

Login with Facebook Login with Google

Why sign up and log in

Guitar Tabs Explorer
Angelica tabs for Bring back her head

Guitar tabs with lyrics

Angelica:  "Bring Back Her Head"
Track 2 of the (superb) EP "The End of a Beautiful Career"

Transcribed by Toby Braithwate  <toby_braithwaite@yahoo.co.uk>
07/08/00

Standard EADGBE tuning.

INTRO:  (clean sound)

  (A chord diagramC majorC)
E:----------------------------|----------------------------|
B:----------------------------|----------------------------|
G:----------------------------|----------------------------|
D:-----2-3-2-------2-3-2------|-----2-3-2-------2-3-2------|
A:---3-----------3------------|---3-----------3------------|
E:----------------------------|----------------------------|


VERSE 1:

  (A chord diagramC majorC)
E:----------------------------|----------------------------|
B:----------------------------|----------------------------|
G:----------------------------|----------------------------|
D:-----2-3-2-------2-3-2------|-----2-3-2-------2-3-2------|
A:---3-----------3------------|---3-----------3------------|
E:----------------------------|----------------------------|
        If you say...

  (A chord diagramA augmentedA)
E:----------------------------|----------------------------|
B:----------------------------|----------------------------|
G:----------------------------|----------------------------|
D:-----2-3-2-------2-3-2------|-----2-3-2-------2-3-2------|
A:---O-----------O------------|---O-----------O------------|
E:----------------------------|----------------------------|

Play above section twice


CHORUS:

 (A chord diagramG+G)
E:----------------------------|----------------------------|
B:----------------------------|----------------------------|
G:----------------------------|----------------------------|
D:----------------------------|----------------------------|
A:-----2-3-2-------2-3-2------|-----2-3-2-------2-3-2------|
E:---3-----------3------------|---3-----------3------------|
				  Bring her head back...

 (A chord diagramC majorC)
E:----------------------------|----------------------------|
B:----------------------------|----------------------------|
G:----------------------------|----------------------------|
D:-----2-3-2-------2-3-2------|-----2-3-2-------2-3-2------|
A:---3-----------3------------|---3-----------3------------|
E:----------------------------|----------------------------|

Play section through again with distortion.  Second guitar also
strums barre chords with distortion (2 strums per beat)


VERSE 2:  as first (still clean sound) but second guitar
stums barre chords with distortion


CHORUS: same as before, but with distortion all the way through


VERSE 3:  (in terms of set-up, as Verse 2)

 (A chord diagramG+G)
E:----------------------------|----------------------------|
B:----------------------------|----------------------------|
G:----------------------------|----------------------------|
D:----------------------------|----------------------------|
A:-----2-3-2-------2-3-2------|-----2-3-2-------2-3-2------|
E:---3-----------3------------|---3-----------3------------|
     Take out the...

 (A chord diagramC majorC)
E:----------------------------|----------------------------|
B:----------------------------|----------------------------|
G:----------------------------|----------------------------|
D:-----2-3-2-------2-3-2------|-----2-3-2-------2-3-2------|
A:---3-----------3------------|---3-----------3------------|
E:----------------------------|----------------------------|

   (Second guitar stops playing)

 (A chord diagramG+G)
E:----------------------------|----------------------------|
B:----------------------------|----------------------------|
G:----------------------------|----------------------------|
D:----------------------------|----------------------------|
A:-----2-3-2-------2-3-2------|-----2-3-2-------2-3-2------|
E:---3-----------3------------|---3-----------3------------|

 (A chord diagramC majorC)
E:----------------------------|----------------------------|
B:----------------------------|----------------------------|
G:----------------------------|----------------------------|
D:----------------------------|----------------------------|
A:---3-(let ring)-------------|----------------------------|
E:----------------------------|----------------------------|


CHORUS: as before


Verse 4:

 (A chord diagramC majorC)
E:----------------------------|----------------------------|
B:----------------------------|----------------------------|
G:----------------------------|----------------------------|
D:-----2-3-2-------2-3-2------|-----2-3-2-------2-3-2------|
A:---3-----------3------------|---3-----------3------------|
E:----------------------------|----------------------------|
        The butcher...

  (A chord diagramA augmentedA)
E:----------------------------|----------------------------|
B:----------------------------|----------------------------|
G:----------------------------|----------------------------|
D:-----2-3-2-------2-3-2------|-----2-3-2-------2-3-2------|
A:---O-----------O------------|---O-----------O------------|
E:----------------------------|----------------------------|

 (A chord diagramC majorC)
E:----------------------------|----------------------------|
B:----------------------------|----------------------------|
G:----------------------------|----------------------------|
D:-----2-3-2-------2-3-2------|-----2-3-2-------2-3-2------|
A:---3-----------3------------|---3-----------3------------|
E:----------------------------|----------------------------|

  (A chord diagramA augmentedA)
E:----------------------------|----------------------------|
B:----------------------------|----------------------------|
G:----------------------------|----------------------------|
D:----------------------------|----------------------------|
A:---0------------------------|----------------------------|
E:----------------------------|----------------------------|
     You drive...


SOLO (sort of) Part 1:

Guitar 1 (some distortion):

E:--13-12-15-12--13-12-15-12--|--13-12-15-12--13-12-15-12--|
B:----------------------------|----------------------------|
G:----------------------------|----------------------------|
D:----------------------------|----------------------------|
A:----------------------------|----------------------------|
E:----------------------------|----------------------------|

  (play four times)

Guitar 2 (clean sound):
 (A chord diagramC majorC)
E:----------------------------|----------------------------|
B:----------------------------|----------------------------|
G:----------------------------|----------------------------|
D:----------------------------|----------------------------|
A:--3--3--3--3---3--3--3--3---|--3--3--3--3---3--3--3--3---|
E:----------------------------|----------------------------|

 (A chord diagramA augmentedA)
E:----------------------------|----------------------------|
B:----------------------------|----------------------------|
G:----------------------------|----------------------------|
D:----------------------------|----------------------------|
A:--O--O--O--O---O--O--O--O---|--O--O--O--O---O--O--O--O---|
E:----------------------------|----------------------------|

   (play twice)


SOLO Part 2:

Guitar 1:  As Solo part 1,  but with tremelo

Guitar 2:

 (A chord diagramC majorC)
E:----------------------------|----------------------------|
B:----------------------------|----------------------------|
G:----------------------------|----------------------------|
D:-----2-3-2-------2-3-2------|-----2-3-2-------2-3-2------|
A:---3-----------3------------|---3-----------3------------|
E:----------------------------|----------------------------|

 (A chord diagramA augmentedA)
E:----------------------------|----------------------------|
B:----------------------------|----------------------------|
G:----------------------------|----------------------------|
D:-----2-3-2-------2-3-2------|-----2-3-2-------2-3-2------|
A:---O-----------O------------|---O-----------O------------|
E:----------------------------|----------------------------|


OUTRO:

(Both guitars, one with distortion, one without)

E:----------------------------|----------------------------|
B:----------------------------|----------------------------|
G:--5--5--5--5---5--5--5--5---|--5--5--5--5---5--5--5--5---|
D:--5--5--5--5---5--5--5--5---|--5--5--5--5---5--5--5--5---|
A:--3--3--3--3---3--3--3--3---|--3--3--3--3---3--3--3--3---|
E:----------------------------|----------------------------|

 (A chord diagramA augmentedA)
E:----------------------------|----------------------------|
B:----------------------------|----------------------------|
G:----------------------------|----------------------------|
D:--7-------------------------|----------------------------|
A:--7-------------------------|----------------------------|
E:--5-------------------------|----------------------------|


Well that's about it.  Any corrections, comments etc,  email me at
toby_braithwaite@yahoo.co.uk

Almost there ...

Sign in to get your own page with links to favourite songs and more. You are just one click away...

Login with Facebook Login with Google