Log in

One click and you are in

Login with Facebook Login with Google

Why sign up and log in

Guitar Tabs Explorer
Angeli tabs for Vivo

Guitar tabs

Title: VIVO
Tabbed by: Marco Gioffre' - info: akromusic@inwind.it

This is my second tab, I think that it's ok...
It's a fantastic song..
X : P.M.
/ \ : Slide
  INTRO
e--------|
B--------|
G--------|
D--4-----|
A--2-5---|
E----3---|
   XXX
2                  3
parlando del tempo ricordo quella volta che
e|--------------------------------------------|
A chord diagramBB|--------------------------------------------|
A chord diagramG+G|-11/12\11--9/11\9--7---11/12\11--9/11\9--10-|
A chord diagramD MajorD|--------------------------------------------|
A chord diagramA augmentedA|--------------------------------------------|
A chord diagramE MajorE|--------------------------------------------|

RIPETERE  INTRO
e|--------|
A chord diagramBB|--------|
A chord diagramG+G|--------|
A chord diagramD MajorD|--4-----|
A chord diagramA augmentedA|--2-5---|
A chord diagramE MajorE|----3---|
    XXX

RIT
e|--------|
A chord diagramBB|--------|
A chord diagramG+G|--------|
A chord diagramD MajorD|--9-5---|
A chord diagramA augmentedA|--9-5---|
A chord diagramE MajorE|--7-3---|

* RIP INTRO P.M. *

PRE-SOLO
e----------|---------|
B----------|---------|
G----------|---------|
D--9---5---|--9---5--|
A--9---5---|--9---5--|
E--7---3---|--7---3--|

Solo:
e-------------------------------------------------------------------------------
B---------10----------------------10--10-12-10----------------------------------
G-11/12\11----11/12\11----11/12\11----------------------2---------------2-2-4-2-
D---------------------12----------------------12---4/5\4---4/5\4---4/5\4-------5
A---------------------------------------------------------------5---------------
E-------------------------------------------------------------------------------

e-7777--1010--77-12-12-|-7777--1010--12121212--|
B-7777--7--7--88-12-12-|-7777--7--7--12121212--|
G----------------------|-----------------------|
D----------------------|-----------------------|
A----------------------|-----------------------|
E----------------------|-----------------------|
  VMVM  V M   VM  V M     VMVM  V M   V M V M
   X X    X    X    X      X X    X     X   X

* RIP RIT *
* INTRO dist *

Tabbed by: Marco Gioffre' - info: akromusic@inwind.it

- akrom is my nick -

Almost there ...

Sign in to get your own page with links to favourite songs and more. You are just one click away...

Login with Facebook Login with Google