Log in

One click and you are in

Login with Facebook Login with Google

Why sign up and log in

Guitar Tabs Explorer
Androids chords for Do it with madonna

Guitar chords with lyrics

Do It With Madonna (Henwood / McKenzie) tabbed by James Rankin I haven't
named each chord every time is appears in each riff just the first time
and i've roughly tried to tab the rhythm, see how you go. One point to

note is that in the filmclip, and live you will probably notice that Tim
has a capo on the first fret, but don't be fooled. As best as i can
figure, his guitar is tuned one half step down, but the detuning is
negated by having a capo on the first fret. It's much easier to play in
standard without a capo... RIFF 1 A chord diagramG5G5 A chord diagramG/EG/E
A chord diagramE MajorE||------------------------|------------------------|------------------------|
A chord diagramBB||------------------------|------------------------|------------------------|
A chord diagramG+G||------------------------|------------------------|------------------------|
A chord diagramD MajorD||--5----5---5-5--5----5--|--5----5---5-5--5----5--|--5----5---5-5--5----5--|
A chord diagramA augmentedA||--5----5---5-5--5----5--|--5----5---5-5--5----5--|--5----5---5-5--5----5--|
A chord diagramE MajorE||--3----3---3-0--3----0--|--3----3---3-0--3----0--|--3----3---3-0--3----0--|
A chord diagramC5C5 Gsus4/E |------------------------|------------------------------|
|------------------------|------------------------------|
|------------------------|------------------------------|
|--5----5---5-5--5----5--|--10----10---10-10--10----10--|
|--5----5---5-5--5----5--|--10----10---10-10--10----10--|
|--3----3---3-0--3----0--|--8-----8----8--0---8-----0---| A chord diagramBb5Bb5 Bb/E
|------------------------|------------------------|-------------------|
|------------------------|------------------------|-------------------|
|------------------------|------------------------|-------------------|
|--8----8---8-8--8----8--|--5----5---5-5--5----5--|--5----------------|
|--8----8---8-8--8----8--|--5----5---5-5--5----5--|--5----------------|
|--6----6---6-0--6----6--|--3----3---3-0--3----0--|--3----------------|

RIFF 2 A chord diagramG5G5 A chord diagramF5F5 A chord diagramE5E5
|------------------------|------------------------|------------------------|
|------------------------|------------------------|------------------------|
|------------------------|------------------------|------------------------|
|--5----5---5-5--5----5--|--3----3---3-3--3----3--|--2----2---2-2--2----2--|
|--5----5---5-5--5----5--|--3----3---3-3--3----3--|--2----2---2-2--2----2--|
|--3----3---3-3--3----3--|--1----1---1-1--1----1--|--0----0---0-0--0----0--|
A chord diagramD MajorD A chord diagramCadd9Cadd9 G/Bb
|--2----2---2-2--2----2--|--3----3---3-3--3----3--|--3----3---3-3--3----3--|
|--3----3---3-3--3----3--|--3----3---3-3--3----3--|--3----3---3-3--3----3--|
|--2----2---2-2--2----2--|--0----0---0-0--0----0--|--0----0---0-0--0----0--|
|--0----0---0-0--0----0--|--2----2---2-2--2----2--|--x----x---x-x--x----x--|
|------------------------|--3----3---3-3--3----3--|--1----1---1-1--1----1--|
|------------------------|------------------------|------------------------|
------------------------|-------------------||
------------------------|-------------------||
------------------------|-------------------||
--5----5---5-5--5----5--|--5----------------||
--5----5---5-5--5----5--|--5----------------||
--3----3---3-0--3----0--|--3----------------|| w. riff 1

Almost there ...

Sign in to get your own page with links to favourite songs and more. You are just one click away...

Login with Facebook Login with Google