Log in

One click and you are in

Login with Facebook Login with Google

Why sign up and log in

Guitar Tabs Explorer
Andralls tabs for Hate

Guitar tabs

Andralls
Hate
from the album Massacre, Corruption, Destruction...
By: andralls@yahoo.com.br

A chord diagramD MajorD||--------------------------|--------------------------|
A chord diagramA augmentedA||--------------------------|--------------------------|
A chord diagramFF||--------------------------|--------------------------|
A chord diagramC majorC||--------------------------|--------------------------|
A chord diagramG+G||--------------------------|--------------3--4--3--4--|
A chord diagramD MajorD||--3--0--0--2--0--0--1--0--|--0--1--0--0--1--2--1--2--|

--------------------------|-----------------------|--------------------------|
--------------------------|-----------------------|--------------------------|
--------------------------|-----------------------|--------------------------|
--------------------------|-----------------------|--------------------------|
--------------------------|--------------5--------|--------------------------|
--3--0--0--2--0--0--1--0--|--0--5--6--7-----------|--3--0--0--2--0--0--1--0--|


--------------------------|--------------------------|-----------------------|
--------------------------|--------------------------|-----------------------|
--------------------------|--------------------------|-----------------------|
--------------------------|--------------------------|-----------------------|
--------------3--4--3--4--|--------------------------|--------------5--------|
--0--1--0--0--1--2--1--2--|--3--0--0--2--0--0--1--0--|--0--5--6--7-----------|


--------------------------|--------------------------|
--------------------------|--------------------------|
--------------------------|--------------------------|
--------------------------|--------------------------|
--------------------------|--------------3--4--3--4--|
--3--0--0--2--0--0--1--0--|--0--1--0--0--1--2--1--2--|


--------------------------|-----------------------|--------------------------|
--------------------------|-----------------------|--------------------------|
--------------------------|-----------------------|--------------------------|
--------------------------|-----------------------|--------------------------|
--------------------------|--------------5--------|--------------------------|
--3--0--0--2--0--0--1--0--|--0--5--6--7-----------|--3--0--0--2--0--0--1--0--|


--------------------------|--------------------------|-----------------------|
--------------------------|--------------------------|-----------------------|
--------------------------|--------------------------|-----------------------|
--------------------------|--------------------------|-----------------------|
--------------3--4--3--4--|--------------------------|--------------5--------|
--0--1--0--0--1--2--1--2--|--3--0--0--2--0--0--1--0--|--0--5--6--7-----------|


--------------------------|--------------------------|
--------------------------|--------------------------|
--------------------------|--------------------------|
--------------------------|--------------------------|
--4--------4--------4-----|--4-----------------------|
--2--0--0--2--0--0--2--0--|--2--0--0--0--0--0--0--0--|


--------------------------|--------------------------|
--------------------------|--------------------------|
--------------------------|--------------------------|
--------------------------|--------------------------|
--4--------4--------4-----|--4-----------------------|
--2--0--0--2--0--0--2--0--|--2--0--0--0--0--0--0--0--|


--------------------------|--------------------------|
--------------------------|--------------------------|
--------------------------|--------------------------|
--------------------------|--------------------------|
--4--------4--------4-----|--4-----------------------|
--2--0--0--2--0--0--2--0--|--2--0--0--0--0--0--0--0--|


--------------------------|-----------------------|--------------------------|
--------------------------|-----------------------|--------------------------|
--------------------------|-----------------------|--------------------------|
--------------------------|-----------------------|--------------------------|
--4--------4--------4-----|--4-----------5--------|--4--------4--------4-----|
--2--0--0--2--0--0--2--0--|--2--5--6--7-----------|--2--0--0--2--0--0--2--0--|


--------------------------|--------------------------|
--------------------------|--------------------------|
--------------------------|--------------------------|
--------------------------|--------------------------|
--4-----------------------|--4--------4--------4-----|
--2--0--0--0--0--0--0--0--|--2--0--0--2--0--0--2--0--|


--------------------------|--------------------------|
--------------------------|--------------------------|
--------------------------|--------------------------|
--------------------------|--------------------------|
--4-----------------------|--4--------4--------4-----|
--2--0--0--0--0--0--0--0--|--2--0--0--2--0--0--2--0--|


--------------------------|--------------------------|
--------------------------|--------------------------|
--------------------------|--------------------------|
--------------------------|--------------------------|
--4-----------------------|--4--------4--------4-----|
--2--0--0--0--0--0--0--0--|--2--0--0--2--0--0--2--0--|


--------------------------|---------------------|----------------------|
--------------------------|---------------------|----------------------|
--------------------------|---------------------|----------------------|
--------------------------|---------------------|----------------------|
--4-----------------------|--8------7------8----|----10------8----7----|
--2--0--0--0--0--0--0--0--|--6------5------6----|----8-------6----5----|


--------------------------|--------------------------|---------------------|
--------------------------|--------------------------|---------------------|
--------------------------|--------------------------|---------------------|
--------------------------|--------------------------|---------------------|
--2-----------------------|--------------------------|--8------7------8----|
--0--0--0--0--0--0--0--0--|--0--0--0--0--0--0--0--0--|--6------5------6----|


----------------------|----------------------------------|
----------------------|----------------------------------|
----------------------|----------------------------------|
----------------------|----------------------------------|
----10------8----7----|--2-------------------------------|
----8-------6----5----|--0-0-0-0-0-0-0-0-0-0-0-0-0-0-0-0-|


----------------------------------|---------------------|----------------------|
----------------------------------|---------------------|----------------------|
----------------------------------|---------------------|----------------------|
----------------------------------|---------------------|----------------------|
----------------------------------|--8------7------8----|----10------8----7----|
--0-0-0-0-0-0-0-0-0-0-0-0-0-0-0-0-|--6------5------6----|----8-------6----5----|


--------------------------|--------------------------|---------------------|
--------------------------|--------------------------|---------------------|
--------------------------|--------------------------|---------------------|
--------------------------|--------------------------|---------------------|
--2-----------------------|--------------------------|--8------7------8----|
--0--0--0--0--0--0--0--0--|--0--0--0--0--0--0--0--0--|--6------5------6----|


----------------------|-------------------|--------------------------|
----------------------|-------------------|--------------------------|
----------------------|-------------------|--------------------------|
----------------------|-------------------|--------------------------|
----10------8----7----|--2----------------|--4--------4--------4-----|
----8-------6----5----|--0----------------|--2--0--0--2--0--0--2--0--|


--------------------------|--------------------------|
--------------------------|--------------------------|
--------------------------|--------------------------|
--------------------------|--------------------------|
--4-----------------------|--4--------4--------4-----|
--2--0--0--0--0--0--0--0--|--2--0--0--2--0--0--2--0--|


--------------------------|--------------------------|
--------------------------|--------------------------|
--------------------------|--------------------------|
--------------------------|--------------------------|
--4-----------------------|--4--------4--------4-----|
--2--0--0--0--0--0--0--0--|--2--0--0--2--0--0--2--0--|


--------------------------|--------------------------|-----------------------|
--------------------------|--------------------------|-----------------------|
--------------------------|--------------------------|-----------------------|
--------------------------|--------------------------|-----------------------|
--4-----------------------|--4--------4--------4-----|--4-----------5--------|
--2--0--0--0--0--0--0--0--|--2--0--0--2--0--0--2--0--|--2--5--6--7-----------|


--------------------------|--------------------------|
--------------------------|--------------------------|
--------------------------|--------------------------|
--------------------------|--------------------------|
--4--------4--------4-----|--4-----------------------|
--2--0--0--2--0--0--2--0--|--2--0--0--0--0--0--0--0--|


--------------------------|--------------------------|
--------------------------|--------------------------|
--------------------------|--------------------------|
--------------------------|--------------------------|
--4--------4--------4-----|--4-----------------------|
--2--0--0--2--0--0--2--0--|--2--0--0--0--0--0--0--0--|


--------------------------|--------------------------|
--------------------------|--------------------------|
--------------------------|--------------------------|
--------------------------|--------------------------|
--4--------4--------4-----|--4-----------------------|
--2--0--0--2--0--0--2--0--|--2--0--0--0--0--0--0--0--|


--------------------------|--------------------------|
--------------------------|--------------------------|
--------------------------|--------------------------|
--------------------------|--------------------------|
--4--------4--------4-----|--4-----------------------|
--2--0--0--2--0--0--2--0--|--2--0--0--0--0--0--0--0--|


----------------------------------|----------------------------|
----------------------------------|----------------------------|
----------------------------------|----------------------------|
----------------------------------|----------------------------|
----------------------------------|------------------7----8----|
--3-3-3-3-3-3-3-3-3-3-3-3-3-3-3-3-|--3-3-3-3-3-3-3-3-5----6----|


----------------------------------|----------------------------|
----------------------------------|----------------------------|
----------------------------------|----------------------------|
----------------------------------|----------------------------|
----------------------------------|------------------7----8----|
--3-3-3-3-3-3-3-3-3-3-3-3-3-3-3-3-|--3-3-3-3-3-3-3-3-5----6----|


----------------------------------|----------------------------|
----------------------------------|----------------------------|
----------------------------------|----------------------------|
----------------------------------|----------------------------|
----------------------------------|------------------7----8----|
--3-3-3-3-3-3-3-3-3-3-3-3-3-3-3-3-|--3-3-3-3-3-3-3-3-5----6----|


----------------------------------|----------------------------|
----------------------------------|----------------------------|
----------------------------------|----------------------------|
----------------------------------|----------------------------|
----------------------------------|------------------7----8----|
--3-3-3-3-3-3-3-3-3-3-3-3-3-3-3-3-|--3-3-3-3-3-3-3-3-5----6----|


----------------------------------|----------------------------|
----------------------------------|----------------------------|
----------------------------------|----------------------------|
----------------------------------|----------------------------|
----------------------------------|------------------7----8----|
--3-3-3-3-3-3-3-3-3-3-3-3-3-3-3-3-|--3-3-3-3-3-3-3-3-5----6----|


----------------------------------|----------------------------|
----------------------------------|----------------------------|
----------------------------------|----------------------------|
----------------------------------|----------------------------|
----------------------------------|------------------7----8----|
--3-3-3-3-3-3-3-3-3-3-3-3-3-3-3-3-|--3-3-3-3-3-3-3-3-5----6----|


----------------------------------|----------------------------|
----------------------------------|----------------------------|
----------------------------------|----------------------------|
----------------------------------|----------------------------|
----------------------------------|------------------7----8----|
--3-3-3-3-3-3-3-3-3-3-3-3-3-3-3-3-|--3-3-3-3-3-3-3-3-5----6----|


-------------------|------------------|----------------------------------|
-------------------|------------------|----------------------------------|
-------------------|------------------|----------------------------------|
-------------------|------------------|----------------------------------|
--4----------------|------------------|----------------------------------|
--2----------------|------------------|--3-3-3-3-3-3-3-3-3-3-3-3-3-3-3-3-|


----------------------------|----------------------------------|
----------------------------|----------------------------------|
----------------------------|----------------------------------|
----------------------------|----------------------------------|
------------------7----8----|----------------------------------|
--3-3-3-3-3-3-3-3-5----6----|--3-3-3-3-3-3-3-3-3-3-3-3-3-3-3-3-|


----------------------------|----------------------------------|
----------------------------|----------------------------------|
----------------------------|----------------------------------|
----------------------------|----------------------------------|
------------------7----8----|----------------------------------|
--3-3-3-3-3-3-3-3-5----6----|--3-3-3-3-3-3-3-3-3-3-3-3-3-3-3-3-|


----------------------------|-------------------|------------------|
----------------------------|-------------------|------------------|
----------------------------|-------------------|------------------|
----------------------------|-------------------|------------------|
------------------7----8----|--4----------------|------------------|
--3-3-3-3-3-3-3-3-5----6----|--2----------------|------------------|


--------------------------|--------------------------|
--------------------------|--------------------------|
--------------------------|--------------------------|
--------------------------|--------------------------|
--4--------4--------4-----|--4-----------------------|
--2--0--0--2--0--0--2--0--|--2--0--0--0--0--0--0--0--|


--------------------------|--------------------------|
--------------------------|--------------------------|
--------------------------|--------------------------|
--------------------------|--------------------------|
--4--------4--------4-----|--4-----------------------|
--2--0--0--2--0--0--2--0--|--2--0--0--0--0--0--0--0--|


--------------------------|--------------------------|
--------------------------|--------------------------|
--------------------------|--------------------------|
--------------------------|--------------------------|
--4--------4--------4-----|--4-----------------------|
--2--0--0--2--0--0--2--0--|--2--0--0--0--0--0--0--0--|


--------------------------|-----------------------|--------------------------|
--------------------------|-----------------------|--------------------------|
--------------------------|-----------------------|--------------------------|
--------------------------|-----------------------|--------------------------|
--4--------4--------4-----|--4-----------5--------|--4--5--------5--4--------|
--2--0--0--2--0--0--2--0--|--2--5--6--7-----------|--2--3--0--0--3--2--0--0--|


--------------------------|--------------------------|-------------------|
--------------------------|--------------------------|-------------------|
--------------------------|--------------------------|-------------------|
--------------------------|--------------------------|-------------------|
--4--5--------5--4--------|--4--5--------5--4--------|--5----------------|
--2--3--0--0--3--2--0--0--|--2--3--0--0--3--2--0--0--|--3----------------|


--------------------------|--------------------------|
--------------------------|--------------------------|
--------------------------|--------------------------|
--------------------------|--------------------------|
--4--5--------5--4--------|--4--5--------5--4--------|
--2--3--0--0--3--2--0--0--|--2--3--0--0--3--2--0--0--|


--------------------------|-------------------|--------------------------|
--------------------------|-------------------|--------------------------|
--------------------------|-------------------|--------------------------|
--------------------------|-------------------|--------------------------|
--4--5--------5--4--------|--4----------------|--4--5--------5--4--------|
--2--3--0--0--3--2--0--0--|--2----------------|--2--3--0--0--3--2--0--0--|


--------------------------|--------------------------|-------------------|
--------------------------|--------------------------|-------------------|
--------------------------|--------------------------|-------------------|
--------------------------|--------------------------|-------------------|
--4--5--------5--4--------|--4--5--------5--4--------|--5----------------|
--2--3--0--0--3--2--0--0--|--2--3--0--0--3--2--0--0--|--3----------------|


--------------------------|--------------------------|
--------------------------|--------------------------|
--------------------------|--------------------------|
--------------------------|--------------------------|
--4--5--------5--4--------|--4--5--------5--4--------|
--2--3--0--0--3--2--0--0--|--2--3--0--0--3--2--0--0--|


--------------------------|-------------------|--------------------------|
--------------------------|-------------------|--------------------------|
--------------------------|-------------------|--------------------------|
--------------------------|-------------------|--4--5--------5--4--------|
--4--5--------5--4--------|--4----------------|--2--3--------3--2--------|
--2--3--0--0--3--2--0--0--|--2----------------|--------0--0--------0--0--|


--------------------------|--------------------------|-------------------|
--------------------------|--------------------------|-------------------|
--------------------------|--------------------------|-------------------|
--4--5--------5--4--------|--4--5--------5--4--------|--5----------------|
--2--3--------3--2--------|--2--3--------3--2--------|--3----------------|
--------0--0--------0--0--|--------0--0--------0--0--|-------------------|


--------------------------|--------------------------|
--------------------------|--------------------------|
--------------------------|--------------------------|
--4--5--------5--4--------|--4--5--------5--4--------|
--2--3--------3--2--------|--2--3--------3--2--------|
--------0--0--------0--0--|--------0--0--------0--0--|


--------------------------|-------------------|--------------------------|
--------------------------|-------------------|--------------------------|
--------------------------|-------------------|--------------------------|
--4--5--------5--4--------|--4----------------|--4--5--------5--4--------|
--2--3--------3--2--------|--2----------------|--2--3--------3--2--------|
--------0--0--------0--0--|-------------------|--------0--0--------0--0--|


--------------------------|--------------------------|-------------------|
--------------------------|--------------------------|-------------------|
--------------------------|--------------------------|-------------------|
--4--5--------5--4--------|--4--5--------5--4--------|--5----------------|
--2--3--------3--2--------|--2--3--------3--2--------|--3----------------|
--------0--0--------0--0--|--------0--0--------0--0--|-------------------|


--------------------------|--------------------------|
--------------------------|--------------------------|
--------------------------|--------------------------|
--4--5--------5--4--------|--4--5--------5--4--------|
--2--3--------3--2--------|--2--3--------3--2--------|
--------0--0--------0--0--|--------0--0--------0--0--|


--------------------------|-------------------|---------------------|
--------------------------|-------------------|---------------------|
--------------------------|-------------------|---------------------|
--4--5--------5--4--------|--4----------------|---------------------|
--2--3--------3--2--------|--2----------------|--8------7------8----|
--------0--0--------0--0--|-------------------|--6------5------6----|


----------------------|--------------------------|--------------------------|
----------------------|--------------------------|--------------------------|
----------------------|--------------------------|--------------------------|
----------------------|--------------------------|--------------------------|
----10------8----7----|--2-----------------------|--------------------------|
----8-------6----5----|--0--0--0--0--0--0--0--0--|--0--0--0--0--0--0--0--0--|


---------------------|----------------------|----------------------------------|
---------------------|----------------------|----------------------------------|
---------------------|----------------------|----------------------------------|
---------------------|----------------------|----------------------------------|
--8------7------8----|----10------8----7----|--2-------------------------------|
--6------5------6----|----8-------6----5----|--0-0-0-0-0-0-0-0-0-0-0-0-0-0-0-0-|


----------------------------------|---------------------|----------------------|
----------------------------------|---------------------|----------------------|
----------------------------------|---------------------|----------------------|
----------------------------------|---------------------|----------------------|
----------------------------------|--8------7------8----|----10------8----7----|
--0-0-0-0-0-0-0-0-0-0-0-0-0-0-0-0-|--6------5------6----|----8-------6----5----|


--------------------------|--------------------------|---------------------|
--------------------------|--------------------------|---------------------|
--------------------------|--------------------------|---------------------|
--------------------------|--------------------------|---------------------|
--2-----------------------|--------------------------|--8------7------8----|
--0--0--0--0--0--0--0--0--|--0--0--0--0--0--0--0--0--|--6------5------6----|


----------------------|-------------------|------------------|
----------------------|-------------------|------------------|
----------------------|-------------------|------------------|
----------------------|-------------------|------------------|
----10------8----7----|--2----------------|------------------|
----8-------6----5----|--0----------------|------------------|


--------------------------|--------------------------|
--------------------------|--------------------------|
--------------------------|--------------------------|
--------------------------|--------------------------|
--4--------4--------4-----|--4-----------------------|
--2--0--0--2--0--0--2--0--|--2--0--0--0--0--0--0--0--|


--------------------------|--------------------------|
--------------------------|--------------------------|
--------------------------|--------------------------|
--------------------------|--------------------------|
--4--------4--------4-----|--4-----------------------|
--2--0--0--2--0--0--2--0--|--2--0--0--0--0--0--0--0--|


--------------------------|--------------------------|
--------------------------|--------------------------|
--------------------------|--------------------------|
--------------------------|--------------------------|
--4--------4--------4-----|--4-----------------------|
--2--0--0--2--0--0--2--0--|--2--0--0--0--0--0--0--0--|


--------------------------|-----------------------|--------------------------|
--------------------------|-----------------------|--------------------------|
--------------------------|-----------------------|--------------------------|
--------------------------|-----------------------|--------------------------|
--4--------4--------4-----|--4-----------5--------|--4--------4--------4-----|
--2--0--0--2--0--0--2--0--|--2--5--6--7-----------|--2--0--0--2--0--0--2--0--|


--------------------------|--------------------------|
--------------------------|--------------------------|
--------------------------|--------------------------|
--------------------------|--------------------------|
--4-----------------------|--4--------4--------4-----|
--2--0--0--0--0--0--0--0--|--2--0--0--2--0--0--2--0--|


--------------------------|--------------------------|
--------------------------|--------------------------|
--------------------------|--------------------------|
--------------------------|--------------------------|
--4-----------------------|--4--------4--------4-----|
--2--0--0--0--0--0--0--0--|--2--0--0--2--0--0--2--0--|


--------------------------|--------------------------|
--------------------------|--------------------------|
--------------------------|--------------------------|
--------------------------|--------------------------|
--4-----------------------|--4--------4--------4-----|
--2--0--0--0--0--0--0--0--|--2--0--0--2--0--0--2--0--|


--------------------------|----------------------------------|
--------------------------|----------------------------------|
--------------------------|----------------------------------|
--------------------------|----------------------------------|
--4-----------------------|----------------------------------|
--2--0--0--0--0--0--0--0--|--3-3-3-3-3-3-3-3-3-3-3-3-3-3-3-3-|


----------------------------|----------------------------------|
----------------------------|----------------------------------|
----------------------------|----------------------------------|
----------------------------|----------------------------------|
------------------7----8----|----------------------------------|
--3-3-3-3-3-3-3-3-5----6----|--3-3-3-3-3-3-3-3-3-3-3-3-3-3-3-3-|


----------------------------|----------------------------------|
----------------------------|----------------------------------|
----------------------------|----------------------------------|
----------------------------|----------------------------------|
------------------7----8----|----------------------------------|
--3-3-3-3-3-3-3-3-5----6----|--3-3-3-3-3-3-3-3-3-3-3-3-3-3-3-3-|


----------------------------|-------------------|------------------|
----------------------------|-------------------|------------------|
----------------------------|-------------------|------------------|
----------------------------|-------------------|------------------|
------------------7----8----|--4----------------|------------------|
--3-3-3-3-3-3-3-3-5----6----|--2----------------|------------------|


----------------------------------|----------------------------|
----------------------------------|----------------------------|
----------------------------------|----------------------------|
----------------------------------|----------------------------|
----------------------------------|------------------7----8----|
--3-3-3-3-3-3-3-3-3-3-3-3-3-3-3-3-|--3-3-3-3-3-3-3-3-5----6----|


----------------------------------|----------------------------|
----------------------------------|----------------------------|
----------------------------------|----------------------------|
----------------------------------|----------------------------|
----------------------------------|------------------7----8----|
--3-3-3-3-3-3-3-3-3-3-3-3-3-3-3-3-|--3-3-3-3-3-3-3-3-5----6----|


----------------------------------|----------------------------|
----------------------------------|----------------------------|
----------------------------------|----------------------------|
----------------------------------|----------------------------|
----------------------------------|------------------7----8----|
--3-3-3-3-3-3-3-3-3-3-3-3-3-3-3-3-|--3-3-3-3-3-3-3-3-5----6----|


-------------------|------------------|----------------------------------|
-------------------|------------------|----------------------------------|
-------------------|------------------|----------------------------------|
-------------------|------------------|----------------------------------|
--4----------------|------------------|----------------------------------|
--2----------------|------------------|--3-3-3-3-3-3-3-3-3-3-3-3-3-3-3-3-|


----------------------------|----------------------------------|
----------------------------|----------------------------------|
----------------------------|----------------------------------|
----------------------------|----------------------------------|
------------------7----8----|----------------------------------|
--3-3-3-3-3-3-3-3-5----6----|--3-3-3-3-3-3-3-3-3-3-3-3-3-3-3-3-|


----------------------------|----------------------------------|
----------------------------|----------------------------------|
----------------------------|----------------------------------|
----------------------------|----------------------------------|
------------------7----8----|----------------------------------|
--3-3-3-3-3-3-3-3-5----6----|--3-3-3-3-3-3-3-3-3-3-3-3-3-3-3-3-|


----------------------------|-------------------|------------------|
----------------------------|-------------------|------------------|
----------------------------|-------------------|------------------|
----------------------------|-------------------|------------------|
------------------7----8----|--4----------------|------------------|
--3-3-3-3-3-3-3-3-5----6----|--2----------------|------------------|


----------------------------------|----------------------------|
----------------------------------|----------------------------|
----------------------------------|----------------------------|
----------------------------------|----------------------------|
----------------------------------|------------------7----8----|
--3-3-3-3-3-3-3-3-3-3-3-3-3-3-3-3-|--3-3-3-3-3-3-3-3-5----6----|


----------------------------------|----------------------------|
----------------------------------|----------------------------|
----------------------------------|----------------------------|
----------------------------------|----------------------------|
----------------------------------|------------------7----8----|
--3-3-3-3-3-3-3-3-3-3-3-3-3-3-3-3-|--3-3-3-3-3-3-3-3-5----6----|


----------------------------------|----------------------------|
----------------------------------|----------------------------|
----------------------------------|----------------------------|
----------------------------------|----------------------------|
----------------------------------|------------------7----8----|
--3-3-3-3-3-3-3-3-3-3-3-3-3-3-3-3-|--3-3-3-3-3-3-3-3-5----6----|


-------------------|------------------|--------------------------|
-------------------|------------------|--------------------------|
-------------------|------------------|--------------------------|
-------------------|------------------|--------------------------|
--4----------------|------------------|--4--------4--------4-----|
--2----------------|------------------|--2--0--0--2--0--0--2--0--|


--------------------------|--------------------------|
--------------------------|--------------------------|
--------------------------|--------------------------|
--------------------------|--------------------------|
--4-----------------------|--4--------4--------4-----|
--2--0--0--0--0--0--0--0--|--2--0--0--2--0--0--2--0--|


--------------------------|--------------------------|
--------------------------|--------------------------|
--------------------------|--------------------------|
--------------------------|--------------------------|
--4-----------------------|--4--------4--------4-----|
--2--0--0--0--0--0--0--0--|--2--0--0--2--0--0--2--0--|


--------------------------|---------------------|-------------------||
--------------------------|---------------------|-------------------||
--------------------------|---------------------|-------------------||
--------------------------|---------------------|-------------------||
--4-----------------------|--4------4------4----|--4----------------||
--2--0--0--0--0--0--0--0--|--2------2------2----|--2----------------||

Almost there ...

Sign in to get your own page with links to favourite songs and more. You are just one click away...

Login with Facebook Login with Google