Search tabs and chords

Search for song, artist or band

Log in

One click and you are in

Login with Facebook Login with Google

Why sign up and log in

Guitar Tabs Explorer
Mayra Andrade guitar tabs for Ilha de santiago

Intro

Tuning: Standard (E A D G B E)

Intro:
e|-----------------|----------------|----------------|-------------------|
B|-------2---------|-------2--------|-------2--------|-----2-------------|
G|-----4-----4-----|-----4-----4----|-----4-----4----|---4------4--------|
D|-------------2---|-------------2--|-------------2--|------------2------|
A|-0---------------|-0--------------|-5--------------|-4-----------------|
E|-----------------|----------------|----------------|-------------------|

e|-----------------|----------------|----------------|
B|------3----------|-------5--------|-------2--------|
G|----4-----4------|-----4----4-----|-----4-----4----|
D|------------2----|-------------2--|------------2---|
A|-2---------------|----------------|-0--------------|
E|-----------------|-4--------------|----------------|

Other versions of Ilha De Santiago

Ilha de santiagoChords

Almost there ...

Sign in to get your own page with links to favourite songs and more. You are just one click away...

Login with Facebook Login with Google